Oops, an error
Loading. Please wait.
We have an official Hallelujah tab made by UG professional guitarists. Check out the tab »
×
543,607 views 624 this week
30 commentsread comments
1 2 3 4 5
x 135
add to favorites
×
Save as Personal and add changes to this tab that will be seen only by you. Learn more ›
×
You can save this tab as Personal to edit and correct it or add notes. All changes will be seen only by you. Learn more »
launch autoscroll
font size
0
reset
how to read this tab
guitar tuner
edit
Autoscroll
slow
fast
+/-
esc
set tempo
stop
Artist: Jeff Buckley
Song: Hallelujah
Album: Grace
Tuning: EADGBe
Capo: 5th Fret


[Intro] 

(gradually becoming louder and faster)

e|------------------|-----------|------------------|---2------2------|
B|-0----0-------0-1-|-0---------|---0h1--1---------|-3------3--------|
G|-0------0--0------|--0-----0--|------------2---0-|------------0----|
D|------------------|---2--0----|--------------4---|-----------------|
A|------------------|-----------|------------------|-----------------|
E|-3----------------|----3------|-3----------------|-----3---------3-|

e|-----------------|---3-----3----|-3-----3--------|-7--7--5-3-2-5---2---0-|
B|--------------1--|---1-----1----|-1-----1--3--0--|-0-------------3---2---|
G|---0-0--0--0--0--|-----------0--|---0------0--0--|-----------------------|
D|-0---5--7--9-----|-------2-----2|-----2----2--2--|-----------------------|
A|--------------3--|-3---3--------|----------2--2--|-----------------------|
E|-----3--5--7-----|--------------|-------------0--|-----------------------|

e|-----------------|----------3--2--|---------------|---------------|-----------------------|
B|---2-----2-----2-|-------1--1-----|-3-----0--1----|-1--------1----|-3-----3-----3-------3-|
G|-----0-----0-----|-------0-----0--|----2-------0--|---0--------0--|---0-----0-----0-------|
D|-2-----2-----2---|-------2--------|-0------------2|---------------|-------------------0---|
A|-0---------------|0-2-3--3--------|----0--2--3----|-----3--3-----2|-----2-----2-----2-----|
E|----------------------------------|---------------|---------------|-----------------------|

e|-----2---------|--2--------|-----0-------------|
B|-------3-------|------0----|-------0---------0-|
G|---------2-----|2---2---2--|---------0---0-----|
D|---0-------0-1-|-----------|---2-------2---2---|
A|-0-------------|-----------|-2-----------------|
E|---------------|----------0|-------------------|

e|-------0---------|-0-----------|0-----------|0--------0------|-----0----------|-3-----0h2-------2-3|
B|-1--------0h1----|---1---------|--0---0-----|---1-------1----|-1-----1--------|---3-------3--------|
G|---0----------0--|-----0-------|----0---0---|-----0-------0--|---0-----0-----0|-----2-------2------|
D|-----2----------2|-----------2-|----------2-|-------2--------|-------------0--|---------------0----|
A|-----------------|---------2---|------------|----------------|----------------|--------------------|
E|-----------------|-------0-----|------------|---------------2|-----------3----|--------------------|

e|----------3-------|---------3------|
B|----------3-------|---------3------|
G|-------0----0-----|------0-----0---|
D|----0-------------|---2------------|
A|------------------|----------------|
E|-3--------------2-|-0------------2-|


[Verse]

 G5                 Em7               G5               Em7
e|----------3-------|----------3------|--------3-------|----------3-----------|
B|----------3-------|----------3------|--------3-------|----------3-----------|
G|-------0-----0----|-------0----0----|-----0-----0----|-------0-----0--------|
D|----0-------------|----0------------|--0-------------|----0-----------------|
A|------------------|-----------------|----------------|----------------------|
E|-3--------------2-|-0-------------2-|-3------------2-|-0--------------2-----|
                                                                     Well I...
 G5                 Em7               G5               Em7
e|----------3-------|----------3------|--------3-------|----------3-----------|
B|----------3-------|----------3------|--------3-------|----------3-----------|
G|-------0-----0----|-------0----0----|-----0-----0----|-------0-----0--------|
D|----0-------------|----0------------|--0-------------|----0-----------------|
A|------------------|-----------------|----------------|-----------------2----|
E|-3--------------2-|-0-------------2-|-3------------2-|-0--------------------|

  C                        D        G/B                 D
e|----------0----|-0--------2-------|-3--------3-------|-0h2--------2---------|
B|----------1----|----1--------3----|----3--------3----|------3--------3------|
G|-------0-----0-|-------0--------2-|-------0--------0-|---------2--------0---|
D|----2----------|------------------|----------0-------|-0----------0---------|
A|-3-------------|------------------|------------------|----------------------|
E|---------------|------------------|------------------|----------------------|

  G/B                C        D        Em               C
e|-3--------3-------|----------2-------|---------0-----|----------0-------|
B|----3--------3----|----1--------3----|------0----0---|-------1-----1----|
G|-------0--------0-|-------0--------2-|---0---------0-|----0-----0----0--|
D|----------0-------|----------0-------|---------------|------------------|
A|-2--------------0-|-3----------------|---------------|-3----------------|
E|------------------|------------------|-0-------------|------------------|

  D                  B7/D#             Em7
e|-2--------2-------|-2--------2------|-3-------------------|
B|----3--------3----|----0----------0-|----0-----0----------|
G|-------2--------2-|-------2---------|-------0--------0----|
D|-0--------0-------|-1--------1------|-2-----------------2-|
A|------------------|-----------------|---------------------|
E|------------------|-----------------|---------------------|


[Chorus]

    Em7  D     C                                     Em
e|---3----2---|----------0-------|----------0-------|----------------------|
B|---0----3---|-1----------------|----------------3-|-0--------0-----------|
G|---0----2---|----0--------0----|-------0-----0----|----0--------0--------|
D|------------|-------2--------2-|----2-------------|-------2--------2-----|
A|------------|-3----------------|-3----------------|----------------------|
E|------------|------------------|------------------|-0--------------------|

                  C                                 G/B          D/A
e|----------------|----------------|----------------|-------3----|-------2h3|
B|--------0-----3-|1-------1-------|--------1-----0-|3-----------|-------3--|
G|-----0----------|---0-------0----|-----0-----0----|---0--------|-----2----|
D|--2--------2----|-----2--------2-|---2------------|-----0------|---0------|
A|----------------|3-------3-------|3-------3-------|0-------3--2|-0--------|
E|0---------------|----------------|----------------|------------|----------|

Repeat the versus and choruses three times, then continue into the bridge.


[Bridge]

 Cadd9                                 Dadd11/E
e|----------3-----3-|------------------|----------2-----2-|--------0---0----|
B|----------3-----3-|------------------|----------3-----3-|--------3---3----|
G|-------0----------|-------0--0-----3-|-------0----------|-----0-----------|
D|----2--------2----|----2-------------|----4--------4----|---4------4------|
A|-3----------------|-3--------3--2--0-|------------------|-----------------|
E|------------------|------------------|-0----------------|-0---------------| 

 C                                  G/B                D/A
e|---------------0-|----------------|-------3----------|-------2------------|
B|---------1-----1-|---------1----1-|-------3----------|-------3--------3---|
G|---------0-------|---------0----0-|----------------0-|-------------2------|
D|------2----------|------2---------|----0--------0----|----0---------------|
A|-2h3--------3----|-2h3--------3---|-2--------2-------|-0--------0---------|
E|-----------------|----------------|------------------|--------------------|


[Interlude]

 G5                 Em7               G5               Em7
e|----------3-------|----------3------|--------3-------|----------3-----------|
B|----------3-------|----------3------|--------3-------|----------3------0----|
G|-------0-----0----|-------0----0----|-----0-----0----|-------0-----0--------|
D|----0-------------|----0------------|--0-------------|----0-----------------|
A|------------------|-----------------|----------------|----------------------|
E|-3--------------2-|-0-------------2-|-3------------2-|-0--------------------|


[Solo]

(free time)

e|-------0---3---5--5/7--5---3-----3-----3------3/5-5-----5--5-/-7---|
B|-0--1------------------------3-----3-------5--5/7---7------7-/-8---|
G|----------------------------- -4-----4---5----5/7-----7----7-/-9---|
D|-------2---5---7--7/9--7-------------------------------------------|
A|-2--3--------------------------------------------------------------|
E|-------------------------------------------------------------------|

e|-7-----7-----8-----8-----8-/-10-10-------10-------10-------10------|
B|---8-----8-----8-----8---8-/-10----10-------10-------10-------10---|
G|-----9-----9-----9-----9-9-/-11-------11-------11-------11-------11|
D|-------------------------------------------------------------------|
A|-------------------------------------------------------------------|
E|-------------------------------------------------------------------|

e|---------------7----12---------8---------------10------------------|
B|-----------8-----------------------8---------------10--------------|
G|-11-/-9------------------------9---------------11------------------|
D|-----------------------------------10-----------------12-----------|
A|-------------------------------------------------------------------|
E|-------------------------------------------------------------------|

Into another verse, but play the C5/Am riff only twice, beginning with
the vocals straight away. 


[Outro]

 C                                 Em7              C
e|--------3--------|2------0-------|----------------|----------------|
B|1----------1-----|---1------1----|--------3-------|-1-------0------|
G|---0----------0--|-----0-------0-|------0----0----|----0-------0---|
D|------2----------|---------------|---2----------2-|-------2------2-|
A|3----------------|---------------|----------------|----------------|
E|-----------------|---------------|0---------------|----------------|

                                     Em7              D
e|-----------------|-----------------|-------3-------|-2--------2------|
B|-1-------1-------|-----------------|-------3-------|----3--------3---|
G|----0-------0----|-0--------2----0-|---0------0----|-------2--------0|
D|------2--------2-|----2--------0---|-0---0-------0-|-0---------------|
A|-3-------3-------|-------3---------|---------------|-----------------|
E|-----------------|-----------------|---------------|-----------------|

 C                              Em7/B           Em            C            
e|-------0-------|--------0-----|--------3------|-------0----|-0-----0----|
B|1---------1----|----------1---|--------0------|------------|---1-----1--|
G|---0---------0-|-----0------0-|-----0-----0---|---------0--|-----0-----0|
D|-----2---------|--2-----------|---2----------2|----0------0|------------|
A|3--------------|3------3------|-2-------------|--2----2----|-3----------|
E|---------------|--------------|---------------|0-----------|------------|

                               *Ad-lib appreggios*
                Em               G           D       Csus2 G/BG5/A  Em                     
e|-0------0----|----------------|-3----|----|-2--|---|-3---|-3--3--|-0---|
B|---1----1----|----------------|-3----|----|-3--|---|-3---|-3--3--|-0---|
G|-----0--0----|---------0----0-|-0----|----|-2--|---|-0---|-0--0--|-0---|
D|--------2----|------------0---|------|----|-0--|---|-----|-------|-2---|
A|--------3----|------2---------|------|----|----|---|-3---|-2--0--|-2---|
E|-------------|----------------|------|----|----|---|-----|-------|-0---|


e|-0---0---0---0-|-3---|-----|-0--|------0-|--0-------|-2-----------|-3-|
B|-0---0---0---0-|-1---|-----|-0--|------0-|--1-------|-3-----------|-3-|
G|-2---4---5---2-|-0---|-----|-0--|----0---|--0-------|-2-----------|-0-|
D|---------------|-2---|-----|-2--|--2-----|--2-------|-0-----------|-0-|
A|---------------|-3---|-----|-2--|--------|--3-------|-------------|---|
E|---------------|-----|-----|-0--|--------|----------|-------------|---|

            
            
Suggest correction
Creating personal tab
Creating personal tab
You can edit any tab online and save it as your Personal.

You can edit, replace or remove any tab part or add personal notes – all changes will be seen only by you.

Personal tabs can be accessed anytime from any device, even offline.
Learn more »
comments
print report bad tab
30 comments total. Showing first comments.
+1 reply
go.mr.pandas 10 Jul 17, 2007 05:19 PM

Nicee

+7 reply
kcap122 135 Sep 30, 2007 09:56 PM

very nice tab dude. u picked up on a lot of accent notes that buckley put in, which none of the other guys did. thanks for the help learnin this one!

+2 reply
wiljones 10 Apr 13, 2008 10:31 AM

very perceptive...onto a winner here

guest
You may want to rate the tab now too:
select rating
Wanna post a correction for this tab? Suggest correction