Oops, an error
Loading. Please wait.

So Real Tab

version 1
version 1

Whole song

Interactive

102,748 views 126 this week
10 commentsread comments
1 2 3 4 5
x 19
add to favorites
launch autoscroll
font size
0
reset
how to read this tab
guitar tuner
Autoscroll
slow
fast
+/-
esc
set tempo
stop
Help us to improve Ultimate-Guitar.com Take our survey!
×
"SO REAL" (J. Buckley- M. Tighe)
Preformed by: Jeff Buckley on the album called "Grace"

Tab by Orjan, at orjano59@hotmail.com

[Intro]

e| ---------------------------------------|----|
B| --9s13--13--13-------------------------|----|
G| -10s14--14--14---14--14-------------14-|----|
D| --0s-0---0---0---15--15---14---12---12-|-12-| play 15 times with p.m
A| ------------------0---0---12---12---12-|-13-|
E| ---------------------------------------|----|

e|-------------------------------|----------------------------------------|
B|-------------------------------|----------------------------------------|
G|------------12--------------14-|----------------------------------------|
D|12--12--12--12--12--12--12--12-|-12--12--12--12-------------------------|
A|12--12--12--12--12--12--12--12-|-12--12--12--12--12-----------12--------|
E|-------------------------------|-------------13--13--12h13-13-13--13-13-|

  [Verse]
e| ---------------------------------|---------------------------------|
B| -----11--11--11--11--11--11--11--|-12--12--12--12--12--12--12--12--|
G| ------9---9---9---9---9---9---9--|--9---9---9---9---9---9---9---9--|
D| ------9---9---9---9---9---9---9--|--9---9---9---9---9---9---9---9--|
A| ---------------------------------|---------------------------------|
E| --0------------------------------|---------------------------------|

Sometimes when he starts the verse, like the spoken part the don't just start
with the singel E, he start with this

---
11-
-9-
-9-
-8-
-x-
-0-


  This is the cool part
                                            (play this for a while
  ( This has waltz ryhtm  )      (rapidly)  then go to the verse again)
e| -------------|---------|-3-3--8-8-8-8-8--7-7-|
B| ----12-12-12-|---7-7-7-|-3-3--8-8-8-8-8--7-7-|
G| ----11-11-11-|---6-6-6-|-0-0--0-0-0-0-0--0-0-|
D| -----9--9--9-|---4-4-4-|-0-0-----------------|
A| -------------|---------|---------------------|
E| -10----------|-5-------|---------------------|


  [Chorus]
e|------------------------|0-0-0-0-0-0-0-0-|
B|10-10-10-10-10-10-10-10-|5-5-5-5-5-5-5-5-|
G|-9--9--9--9--9--9--9--9-|5-5-5-5-5-5-5-5-|
D|-7--7--7--7--7--7--7--7-|4-4-4-4-4-4-4-4-|
A|-X--x--x--x--x--x--x--x-|0-0-0-0-0-0-0-0-|
E|-8--8--8--8--8--8--8--8-|5-5-5-5-5-5-5-5-|


Distorted part:
just play some noise with lots of feedback and 1 gitar plays this with plenty
of fuzz

-0----|
-0----|
-7B*--|
-0----|
-0----|
-0----|
-0----|

B* means beand up and down-

The final part:

  I don't write the rythm, but you'll hear it your self
  fig 1
e|----------------|----------|----|
B|----------3---7-|------8-7-|--3-|
G|----------2---6-|--7-9-7-7-|--3-|
D|----------0---0-|--0-0-0-0-|--2-|
A|-0-2-4----0---0-|--0-0-0-0-|--0-|
E|-------3--3---7-|--7-7-7-7-|--3-|
 * * * *
fig 2
----------------|----------|---------|
----------3---7-|------8-7-|--3-5-3--|
----------2---6-|--7-9-7-7-|--3-5-3--|
----------0---0-|--0-0-0-0-|--2-4-2--|
-0-2-4----0---0-|--0-0-0-0-|--0-0-0--|
-------3--3---7-|--7-7-7-7-|--3-5-3--|
 * * * *

* play this very hard

first play fig 1 then to and so on......

end with

-2-
-2-
-3-
-x-Let ring
-4-
---
Suggest correction
comments
print report bad tab
10 comments total. Showing first comments.
+1 reply
Jimi_theThief 10 Nov 28, 2006 03:00 AM

not quite right in parts,,

0 reply
Sloopy 1,141 Jul 03, 2007 07:00 PM

Good but not great.

0 reply
rhysm 20 Oct 01, 2007 05:27 PM

i dont think that bit in the intro is palm muted, just played softly along with the muted e string, but other than that pretty good

guest
You may want to rate the tab now too:
select rating
Wanna post a correction for this tab? Suggest correction