Oops, an error
Loading. Please wait.

Ross Concert tab

version 2
version 2

Whole song

905 views 1 this week
no commentswrite comment
1 2 3 4 5
3 more votes to show rating
add to favorites
×
Save as Personal and add changes to this tab that will be seen only by you. Learn more ›
×
You can save this tab as Personal to edit and correct it or add notes. All changes will be seen only by you. Learn more »
launch autoscroll
font size
0
reset
how to read this tab
guitar tuner
edit
Autoscroll
slow
fast
+/-
esc
set tempo
stop
Ross' Concert
**Read Notes on last page**                         Tempo = 90

Music By Jeff Danna
Transcribed By McKay Christensen

  1   &   2   &   3   &   4   &    1   &   2   &   3   &   4   &
F#0-----------------------0-------|3-------------------------------|
D|----------------2---------------|----------------0---------------|
A|--------------------------------|------------------------0-------|
D|--------------------------------|--------------------0-----------|
A|2-------------------------------|--------------------------------|
D|--------------------------------|4-------------------------------|

  1   &   2   &   3   &   4   &    1   &   2   &   3   &   4   &
F#--------------------------------|--------------------------------|
D|0-----------------------0-------|0-------------------------------|
A|------------0-------0-----------|----------------0---------------|
D|----------------5---------------|--------4---5-------------------|
A|--------------------------------|--------------------------------|
D|5-------------------------------|0-------------------------------|

  1   &   2   &   3   &   4   &    1   &   2   &   3   &   4   &
F#0-----------------------0-------|3-------5-------3---------------|
D|----------------2---------------|--------------------------------|
A|--------------------------------|----4-------4-------------------|
D|--------------------------------|--------------------------------|
A|2-------------------------------|--------------------------------|
D|--------------------------------|4-------------------------------|

  1   &   2   &   3   &   4   &    1   &   2   &   3   &   4   &
F#--------------------------------|-------------------------------||
D|0-------------------------------|12*----------------------------||
A|----0---------------------------|---12*-------------------------||
D|--------5---0-------------------|-------------------------------||
A|--------------------------------|-------------------------------||
D|5-------------------------------|-------------------------------||

  1   &   2   &   3   &   4   &    1   &   2   &   3   &   4   &
F#0-----------------------0-------|0-------------------------------|
D|----------------2---------------|----------------0---------------|
A|----4---2-----------2-----------|----0---4---------------0-------|
D|--------------------------------|------------0-------0-----------|
A|2-----------2-------------------|--------------------------------|
D|--------------------------------|4-------------------------------|

  1   &   2   &   3   &   4   &    1   &   2   &   3   &   4   &
F#--------------------------------|--------------------------------|
D|0-----------------------0-------|0-----------0-------------------|
A|----0---------------2-------0---|--------0-----------------------|
D|--------5-------5---------------|--0h2h4---------4---2---0-------|
A|--------------------------------|--------------------------------|
D|5----------5--------------------|0-------------------------------|

  1   &   2   &   3   &   4   &    1   &   2   &   3   &   4   &
F#0-----------------------0-------|3-------5-------3---------------|
D|----------------2---------------|--------------------------------|
A|----4---2-----------2-----------|----4-------4-------------------|
D|------------0-------------------|--------------------------------|
A|2-------------------------------|--------------------------------|
D|--------------------------------|4-------------------------------|


  1   &   2   &   3   &   4   &    1   &   2   &   3   &   4   &
F#----------------3---------------|5-----------------3-5---3---1---|
D|5-------------------------------|------------------0-------------|
A|----0---------------0-----------|-----------------0--------------|
D|--------5---0-----------5---0---|----------------5---------------|
A|--------------------------------|7--------------5----------------|
D|5---------------0---------------|--------------------------------|


  1   &   2   &   3   &   4   &    1   &   2   &   3   &   4   &
F#0-------------------------------|-----------------3--5---3---1---|
D|--------0-------------------0---|--------0--------0--------------|
A|----0-------0-------4---0-------|0--h2-------0---0---------------|
D|--------------------------------|---------------5----------------|
A|--------------------------------|--------------5-----------------|
D|0---------------4---------------|5-------------------------------|


  1   &   2   &   3   &   4   &    1   &   2   &   3   &   4   &
F#0-------------------0-----------|-----------------3--5---3---1---|
D|--------0---------------2-------|--------0--------0--------------|
A|----5-------0-------------------|0--h2-------0---0---------------|
D|----------------------------0---|---------------5----------------|
A|2---------------0---------------|--------------5-----------------|
D|--------------------------------|5-------------------------------|


  1   &   2   &   3   &   4   &    1   &   2   &   3   &   4   &
F#0-------------------------------|----------------7---------------|
D|--------0-------------------0---|12----------------------9-------|
A|----0-------0-------4---0-------|--------------------------------|
D|--------------------------------|--------------------7-----------|
A|--------------------------------|10--12--10------0---------------|
D|0---------------4---------------|------------12------------------|


  1   &   2   &   3   &   4   &    1   &   2   &   3   &   4   &
F#0---------------0---------------|-----------------3--5---3---1---|
D|----0-------0-------454-2-------|----0====--------0--------------|
A|--------4-----------------------|---0=====-------0---------------|
D|----------------------------0---|--0======------0----------------|
A|2-------------------------------|-5=======-----5-----------------|
D|--------------------------------|5========-----------------------|


  1   &   2   &   3   &   4   &    1   &   2   &   3   &   4   &
F#0-------------------------------|-----------------3--5---3---1---|
D|--------0-------------------0---|--------0--------0--------------|
A|----0-------0-------4---0-------|0--h2-------0---0---------------|
D|--------------------------------|---------------5----------------|
A|--------------------------------|--------------5-----------------|
D|0---------------4---------------|5-------------------------------|


  1   &   2   &   3   &   4   &    1   &   2   &   3   &   4   &
F#0-------------------0-----------|-----------------3--5---3---1---|
D|--------0---------------2-------|--------0--------0--------------|
A|----5-------0-------------------|0--h2-----------0---------------|
D|----------------------------0---|---------------5----------------|
A|2---------------0---------------|--------------5-----------------|
D|--------------------------------|5-------------------------------|


  1   &   2   &   3   &   4   &    1   &   2   &   3   &   4   &
F#0-------------------------------|----------------7---------------|
D|--------0-------------------0---|12----------------------9-------|
A|----0-------0-------4---0-------|--------------------------------|
D|--------------------------------|--------------------7-----------|
A|--------------------------------|10--12--10------0---------------|
D|0---------------4---------------|------------12------------------|


  1   &   2   &   3   &   4   &    1   &   2   &   3   &   4   &
F#0---------------0---------------|-------------------------------||
D|----0-------0-------454-2-------|----0==========================||
A|--------4-----------------------|---0===========================||
D|----------------------------0---|--0============================||
A|2-------------------------------|-5=============================||
D|--------------------------------|5==============================||


  1   &   2   &   3   &   4   &    1   &   2   &   3   &   4   &
F#--------------------------------|--------------------------------|
D|------------0-------------------|------------0-------------2===--|
A|--------0-------0-----------0---|--------0-------0--------0====--|
D|--0h2h4======-------4---5-------|--0h2h4======-------4---5=====--|
A|--------------------------------|--------------------------------|
D|0-------------------------------|0-------------------------------|


  1   &   2   &   3   &   4   &    1   &   2   &   3   &   4   &
F#--------------------------------|--------------------------------|
D|------------0-------------------|------------0-------------------|
A|--------0-------0-----------0---|--------0-------0---------------|
D|--0h2h4======-------4---5-------|--0h2h4======-------4----2---0--|
A|--------------------------------|--------------------------------|
D|0-------------------------------|0-------------------------------|


  1   &   2   &   3   &   4   &    1   &   2   &   3   &   4   &
F#--------------------------------|----------------0---0-----------|
D|------------0-------------------|------------0---0---2---0==-----|
A|--------0-------0-----------0---|--------0------(0)-(0)--0==-----|
D|--0h2h4======-------4---5-------|--0h2h4======-------------------|
A|2-------------------------------|2-------------------------------|
D|--------------------------------|--------------------------------|


  1   &   2   &   3   &   4   &    1   &   2   &   3   &   4   &
F#----------------3---------------|5-------7-------8-------7---8---|
D|5-------------------------------|--------------------------------|
A|----0---------------0-----------|----0-------0-------0-----------|
D|--------5---0-----------5---0---|5-------0-----------------------|
A|----------------2---------------|----------------10--------------|
D|5-------------------------------|--------------------------------|


  1   &   2   &   3   &   4   &    1   &   2   &   3   &   4   &
F#--------------------------------|0-------------------------------|
D|------------0-------------------|--------0-------2---------------|
A|--------0-------0-----------0---|------------------------5-------|
D|--0h2h4======-------4---5-------|------------4-------5-------4---|
A|--------------------------------|--------------------------------|
D|0-------------------------------|----0---------------------------|


  1   &   2   &   3   &   4   &    1   &   2   &   3   &   4   &
F#--------------------------------|0-------------------------------|
D|------------0-------------------|--------0-------2-------0-------|
A|--------0-------0-----------0---|--------------------------------|
D|--0h2h4======-------4---5-------|------------4-------5-------4---|
A|--------------------------------|--------------------------------|
D|0-------------------------------|----0---------------------------|


  1   &   2   &   3   &   4   &    1   &   2   &   3   &   4   &
F#--------------------------------|0-------------------------------|
D|------------0-------------------|--------0-------2-------0-------|
A|--------0-------0-----------0---|--------------------------------|
D|--0h2h4======-------4---5-------|------------4-------5-------4---|
A|2-------------------------------|----2---------------------------|
D|--------------------------------|--------------------------------|


  1   &   2   &   3   &   4   &    1   &   2   &   3   &   4   &
F#----------------3---------------|5----------------3--5---3---1---|
D|5-------------------------------|-----------------0--------------|
A|----0---------------0-----------|----------------0---------------|
D|--------5---0-----------5---0---|---------------0----------------|
A|--------------------------------|7-------------5-----------------|
D|5---------------0---------------|--------------------------------|


  1   &   2   &   3   &   4   &    1   &   2   &   3   &   4   &
F#0-------------------------------|-----------------3--5---3---1---|
D|--------0-------------------0---|--------0--------0--------------|
A|----0-------0-------4---0-------|0--h2-------0---0---------------|
D|--------------------------------|---------------5----------------|
A|--------------------------------|--------------5-----------------|
D|0---------------4---------------|5-------------------------------|


  1   &   2   &   3   &   4   &    1   &   2   &   3   &   4   &
F#0-------------------0-----------|-----------------3--5---3---1---|
D|--------0---------------2-------|--------0--------0--------------|
A|----5-------0-------------------|0--h2-----------0---------------|
D|----------------------------0---|---------------0----------------|
A|2---------------0---------------|--------------5-----------------|
D|--------------------------------|5-------------------------------|


  1   &   2   &   3   &   4   &    1   &   2   &   3   &   4   &
F#0-------------------------------|----------------7---------------|
D|--------0-------------------0---|12----------------------9-------|
A|----0-------0-------4---0-------|--------------------------------|
D|--------------------------------|--------------------7-----------|
A|--------------------------------|10--12--10------0---------------|
D|0---------------4---------------|------------12------------------|


  1   &   2   &   3   &   4   &    1   &   2   &   3   &   4   &
F#0---------------0---------------|-------------------------------|| ||
D|----0-------0-------454-2-------|----0==========================|| ||
A|--------4-----------------------|---0===========================|| ||
D|----------------------------0---|--0============================|| ||
A|2-------------------------------|-5=============================|| ||
D|--------------------------------|5==============================|| ||


  1   &   2   &   3   &   4   &    1   &   2   &   3   &   4   &
F#--------------------------------|----------------3-3/5---3---1---|
D|--0------0-----0-----0-----0----|0-----0-----0-------------------|
A|----0------0-----0-----0-----0--|--0-----0-------0-0---0---0---0-|
D|0-----7------7-----7-----7-----7|----7-----7---7-----------------|
A|--------------------------------|--------------------------------|
D|--------------------------------|--------------------------------|


  1   &   2   &   3   &   4   &    1   &   2   &   3   &   4   &
F#--------------------------------|0-0-0-0-0-0-0-0-3-3/5---3---1---|
D|----0-----0-----0-----------0---|0-0-0-0-0-0-0-0-----------------|
A|--0-----0-----0-----0---0-5---7-|5-5-5-4-4-4-5-5-0-0---0---0---0-|
D|7-----9-----7-----7---7---------|5-5-5-4-4-4-5-5-----------------|
A|--------------------------------|0-0-0-0-0-0-0-0-----------------|
D|--------------------------------|5-5-5-4-4-4-5-5-----------------|


  1   &   2   &   3   &   4   &    1   &   2   &   3   &   4   &
F#--------------------------------|0-0-0-0-0-0-0-0-3-3/5---3---1---|
D|----0------0-----0-------0--0--0|0-0-0-0-0-0-0-0-----------------|
A|--0------0-----0---0---0---0--0-|5-5-5-4-4-4-5-5-0-0---0---0---0-|
D|7----7/9-----7-------5----4--0--|5-5-5-4-4-5-5-5-----------------|
A|--------------------------------|0-0-0-0-0-0-0-0-----------------|
D|--------------------------------|5-5-5-4-4-4-5-5-----------------|


  1   &   2   &   3   &   4   &    1   &   2   &   3   &   4   &
F#--------------------------------|0-0---0---0---0---0---0-0-0-0-0-|
D|---0---0---0---0---0---0---0---0|0-0---0---0---0---0---0-0-0-0-0-|
A|--0---0---0---0---0---0---0---0-|0-0---0---0---0---0---0-0-0-0-0-|
D|------------------------0---2---|0-0---0---0---0---0---0-0-0-0-0-|
A|2---4---2---0---2---4-----------|5-5---5---5---5---5---5-5-5-5-5-|
D|--------------------------------|5-5---5---5---5---5---5-5-5-5-5-|


  1   &   2   &   3   &   4   &    1   &   2   &   3   &   4   &
F#0-0-0-0-0-0-0-0-0-0-0-3-0-0-0-0-|0-0-0-0-0-0-0-0-0-0-0-3-0-0-0-0-|
D|2-2x2x2-4-4x4x4-4-4x4-4-0x0x0x0-|2-2x2x2-4-4x4x4-4-4x4-4-0x0x0x0-|
A|0-0x0x0-0-0x0x0-0-0x0-0-0x0x0x0-|0-0x0x0-0-0x0x0-0-0x0-0-0x0x0x0-|
D|2-2x2x2-4-4x4x4—4-4x4-4-0x0x0x0-|2-2x2x2-4-4x4x4—4-4x4-4-0x0x0x0-|
A|0-0-0-0-0-0-0-0-0-0-0-0-0-0-0-0-|0-0-0-0-0-0-0-0-0-0-0-0-0-0-0-0-|
D|0-0-0-0-0-0-0-0-0-0-0-0-0-0-0-0-|0-0-0-0-0-0-0-0-0-0-0-0-0-0-0-0-|


  1   &   2   &   3   &   4   &    1   &   2   &   3   &   4   &
F#0-0-0-0-x-0-0-0-0-0-x-0-0-0-0-0-|0-0-0-0-x-0-0-0-0-0-x-0-0-0-0-0-|
D|0-0-0-0-x-0-0-0-0-0-x-0-0-0-0-0-|0-0-0-0-x-0-0-0-0-0-x-0-0-0-0-0-|
A|0-0-0-0-x-0-0-0-0-0-x-0-0-0-0-0-|0-0-0-0-x-0-0-0-0-0-x-0-0-0-0-0-|
D|3-3-3-3-x-3-3-3-3-3-x-3-3-3-3-3-|3/5-5-5-x-5-5-5-5-5-x-5-5-5-5-5-|
A|3-3-3-3-x-3-3-3-3-3-x-3-3-3-3-3-|3/5-5-5-x-5-5-5-5-5-x-5-5-5-5-5-|
D|3-3-3-3-x-3-3-3-3-3-x-3-3-3-3-3-|3/5-5-5-x-5-5-5-5-5-x-5-5-5-5-5-|


  1   &   2   &   3   &   4   &    1   &   2   &   3   &   4   &
F#0-0-0-0-0-0-0-0-0-0-0-3-0-0-0-0-|0-0-0-0-0-0-0-0-0-0-0-3-0-0-0-0-|
D|2-2x2x2-4-4x4x4-4-4x4-4-0x0x0x0-|2-2x2x2-4-4x4x4-4-4x4-4-0x0x0x0-|
A|0-0x0x0-0-0x0x0-0-0x0-0-0x0x0x0-|0-0x0x0-0-0x0x0-0-0x0-0-0x0x0x0-|
D|2-2x2x2-4-4x4x4—4-4x4-4-0x0x0x0-|2-2x2x2-4-4x4x4—4-4x4-4-0x0x0x0-|
A|0-0-0-0-0-0-0-0-0-0-0-0-0-0-0-0-|0-0-0-0-0-0-0-0-0-0-0-0-0-0-0-0-|
D|0-0-0-0-0-0-0-0-0-0-0-0-0-0-0-0-|0-0-0-0-0-0-0-0-0-0-0-0-0-0-0-0-|


  1   &   2   &   3   &   4   &    1   &   2   &   3   &   4   &
F#0-0-0-0---0-0-0-0-0---0-0-0-0-0-|0-0-0-0---0-0-0-0-0---0-0-0-0-0-|
D|0-0-0-0---0-0-0-0-0---0-0-0-0-0-|0-0-0-0---0-0-0-0-0---0-0-0-0-0-|
A|0-0-0-0---0-0-0-0-0---0-0-0-0-0-|0-0-0-0---0-0-0-0-0---0-0-0-0-0-|
D|3-3-3-3---3-3-3-3-3---3-3-3-3-3-|3/5-5-5---5-5-5-5-5---5-5-5-5-5-|
A|3-3-3-3---3-3-3-3-3---3-3-3-3-3-|3/5-5-5---5-5-5-5-5---5-5-5-5-5-|
D|3-3-3-3---3-3-3-3-3---3-3-3-3-3-|3/5-5-5---5-5-5-5-5---5-5-5-5-5-|


  1   &   2   &   3   &   4   &    1   &   2   &   3   &   4   &
F#--------------------------------|----------------3-3-5-5-3-3-1-1-|
D|--------------------------------|------0-------0-0-0-0-0-0-0-0-0-|
A|------------------0-------0---0-|--0--0----0--0--0-0-0-0-0-0-0-0-|
D|--3---0---3---3--3----3--3---3--|-3--3----3--3---0-0-0-0-0-0-0-0-|
A|-5---0---5---5--3----5--3---3---|3-------3-------0-0-0-0-0-0-0-0-|
D|5---0---5---5-------5-----------|----------------0-0-0-0-0-0-0-0-|


  1   &   2   &   3   &   4   &    1   &   2   &   3   &   4   &
F#0-0-0-0---0-0-0-0-0---0-0-0-0-0-|0-0-0-0---0-0-0-3-3-5-5-3-3-1-1-|
D|0-0-0-0---0-0-0-0-0---0-0-0-0-0-|0-0-0-0---0-0-0-0-0-0-0-0-0-0-0-|
A|0-0-0-0---0-0-0-0-0---0-0-0-0-0-|0-0-0-0---0-0-0-0-0-0-0-0-0-0-0-|
D|0-0-0-0---0-0-0-0-0---0-0-0-0-0-|0-0-0-0---0-0-0-0-0-0-0-0-0-0-0-|
A|0-0—0-0---0-0-0-0-0---0-0-0-0-0-|0-0—0-0---0-0-0-0-0-0-0-0-0-0-0-|
D|0-0-0-0---0-0-0-0-0---0-0-0-0-0-|5-5-5-5---5-5-5-5-5-5-5-5-5-5-5-|


  1   &   2   &   3   &   4   &    1   &   2   &   3   &   4   &
F#0-0-0-0---0-0-0-0-0---0-0-0-0-0-|0-0-0-0---0-0-0-3-3-5-5-3-3-1-1-|
D|0-0-0-0---0-0-0-0-0---0-0-0-0-0-|0-0-0-0---0-0-0-0-0-0-0-0-0-0-0-|
A|0-0-0-0---0-0-0-0-0---0-0-0-0-0-|0-0-0-0---0-0-0-0-0-0-0-0-0-0-0-|
D|0-0-0-0---0-0-0-0-0---0-0-0-0-0-|0-0-0-0---0-0-0-0-0-0-0-0-0-0-0-|
A|0-0—0-0---0-0-0-0-0---0-0-0-0-0-|0-0—0-0---0-0-0-0-0-0-0-0-0-0-0-|
D|0-0-0-0---0-0-0-0-0---0-0-0-0-0-|5-5-5-5---5-5-5-5-5-5-5-5-5-5-5-|


  1   &   2   &   3   &   4   &    1   &   2   &   3   &   4   &
F#0-0-0-0---0-0-0-0-0---0-0-0-0-0-|0-0-0-0---0-0-0-0-0-0-0-0-0-0-0-|
D|0-0-0-0---0-0-0-0-0---0-0-0-0-0-|0-0-0-0---0-0-0-0-0-0-0-0-0-0-0-|
A|0-0-0-0---0-0-0-0-0---0-0-0-0-0-|0-0-0-0---0-0-0-0-0-0-0-0-0-0-0-|
D|0-0-0-0---0-0-0-0-0---0-0-0-0-0-|0-0-0-0---0-0-0-0-0-0-0-0-0-0-0-|
A|2-2—2-2---2-2-2-2-2---2-2-2-2-2-|5-5—5-5---5-5-5-5-5-5-5-5-5-5-5-|
D|0-0-0-0---0-0-0-0-0---0-0-0-0-0-|5-5-5-5---5-5-5-5-5-5-5-5-5-5-5-|


  1   &   2   &   3   &   4   &
F#--------------------------------|||
D|--0=============================|||
A|--0=============================|||
D|-0==============================|||
A|-0==============================|||
D|0===============================|||

(I tabbed this many years ago and don't have a guitar right now to see how accurate the 
is; if you want me to change it, or have suggestions for me you can email me at 
at gmail.com

This song is tuned to F#DADAD to make it in tune with the recording.  To be nicer on 
strings, you could tune it to: ECGCGC.  If you want it to be the same as the recording then 
a capo on the 2nd fret.

Bold = Notes in bold mean they should be accented or they are the melody.
* = Harmonics
/ = Slide
h = hammer
x – Play “note” with heavy damping. (hold fingers on strings but don't press down)
==== = Sustain note

            
            
Suggest correction
Creating personal tab
Creating personal tab
You can edit any tab online and save it as your Personal.

You can edit, replace or remove any tab part or add personal notes – all changes will be seen only by you.

Personal tabs can be accessed anytime from any device, even offline.
Learn more »
Give kudos to tab author, rate the tab!
1 2 3 4 5
comments
print report bad tab
guest
You may want to rate the tab now too:
select rating
Wanna post a correction for this tab? Suggest correction