Oops, an error
Loading. Please wait.

Lose Myself Tab

2,131 views 1 this week
no commentswrite comment
1 2 3 4 5
1 last vote to show rating
add to favorites
launch autoscroll
font size
0
reset
how to read this tab
guitar tuner
Autoscroll
slow
fast
+/-
esc
set tempo
stop
Help us to improve Ultimate-Guitar.com Take our survey!
×
Author
----------------------------------------------------------------------------
                             Lose Myself - Jeff Deyo
----------------------------------------------------------------------------
Tabbed by:Joshua Alvarado
Email:Alvarador@bellsouth.net

Tuning:Standard(EADGBe)

Intro
Chords:A Bm G D(2x)

Lead Guitar All 16th notes
e|--------------------------------------------------------------------------|
B|-10---12--8---15----------------------------------------------------------|
G|--------------------------------------------------------------------------|
D|-7----9---5---12----------------------------------------------------------|
A|--------------------------------------------------------------------------|
E|--------------------------------------------------------------------------|

Verse 1
F#m                  D                           Bm             D
Here I am longing, I can't stop this longing for more of you in me
F#m                         D                    Bm              D
Lost In the moment, this beautiful moment, this prayer I sing to you
     A            Bm       G               D
I'm crying out to you to change the way I think
     A            Bm                G   D
To steal away my pride and make me new

Lead Guitar (comes in verse on I'm crying out...)
Lead Riff
e|--------------------------------------------------------------------------|
B|----10-----------10------------10-----------------------------------------|
G|6-7----6-7---6-7----9-11---6-7----6-7-------------------------------------|
D|-----------7-------------9------------7/----------------------------------|
A|--------------------------------------------------------------------------|
E|--------------------------------------------------------------------------|

Chorus
A           Bm               G               D
Saturate my life, fill every part of me with you
A                 Bm           G    D        (A Bm G D)
Drown me in your love, let me lose myself in you

Verse 2
F#m                   D                           Bm            D
Here I am longing, I can't stop this longing for more of you in me
F#m                         D                     Bm               D
Lost in this moment, this beautiful moment, this prayer I sing to you
   A             Bm           G                D
I glady come to you, cause I want no place to hide
      A             Bm                G    D
I'm pouring out my heart to give you room

Repeat Lead Riff in Verse on I glady come to you....

Chorus X2

Solo:                                                    *bend and release
e|--------------------------------------------------------------------------|
B|-----10---10-12-10~---10-12---10-10---------10-10---10-14br~-14p12p10-----|
G|-9-9----9-----------9-------9-------12-12-9-------9-----------------------|
D|--------------------------------------------------------------------------|
A|--------------------------------------------------------------------------|
E|--------------------------------------------------------------------------|

e|--------------------------------------------------------------------------|
B|-17--15-----14--17b~--15-14-----15-----15------15-17br-15~----------------|
G|---14--14-14--14----14-----14-14----------14-16---------------------------|
D|----------------------------------14-14-----------------------------------|
A|----------------------------------14-14-----------------------------------|
E|--------------------------------------------------------------------------|
  Tremolo Pick all notes and use a wah pedal in this part
e-------------------------------------------|
B-12--14--15--17--15--14--12----------------|
G-------------------------------------------|
D-------------------------------------------|
A-------------------------------------------|
E-------------------------------------------|

Bend the bottom note and release it still keep wah going
e-------------------------|
B-12----14----15----17----|
G-14brb-16brb-17brb-19----|b-hold for Feedback
D-------------------------|
A-------------------------|
E-------------------------|

Repeat Chorus and end.

| /  slide up
| \  slide down
| h  hammer-on
| p  pull-off
| ~  vibrato
| +  harmonic
| x  Mute note
============================================================================
Suggest correction
Give kudos to tab author, rate the tab!
1 2 3 4 5
comments
print report bad tab
guest
You may want to rate the tab now too:
select rating
Wanna post a correction for this tab? Suggest correction