Oops, an error
Loading. Please wait.

We Are Hungry Tab

9,129 views 3 this week
1 commentread comment
1 2 3 4 5
excellent!
x 5
add to favorites
launch autoscroll
font size
0
reset
how to read this tab
guitar tuner
Autoscroll
slow
fast
+/-
esc
set tempo
stop
Help us to improve Ultimate-Guitar.com Take our survey!
×
Author
Difficulty
novice
----------------------------------------------------------------------------
                           We Are Hungry - Jeff Deyo
----------------------------------------------------------------------------
Tabbed by:Joshua Alvarado
Email:Alvarador@bellsouth.net

Tuning:Standard

Intro F#m F#m A A F#m F#m E D

Lead guitarist intro riff x11
e|--------------------------------------------------------------------------|
B|--------------------------------------------------------------------------|
G|-14-16-13-14-11~----------------------------------------------------------|
D|--------------------------------------------------------------------------|
A|--------------------------------------------------------------------------|
E|--------------------------------------------------------------------------|

Verse 1 x2
A        D             F#m              D
Lord, I want more of you  Living water rain down on me
A        D             F#m                  D
Lord, I need more of you  Living breath of life come fill me up

Lead guitarist comes in second time of verse Repeat through all of verse
All about timing
e|--------------------------------------------------------------------------|
B|-------14----14-------14----14-----------------------------------------|
G|-14-14----14----14-14----14---------------------------------------------|
D|--------------------------------------------------------------------------|
A|--------------------------------------------------------------------------|
E|--------------------------------------------------------------------------|
 Do this in the verse when the singer sings
 ...Rain Down on me...
e|------------16-17---------------------------------------------------------|
B|--------------------------------------------------------------------------|
G|--------------------------------------------------------------------------|
D|--------------------------------------------------------------------------|
A|--------------------------------------------------------------------------|
E|--------------------------------------------------------------------------|

Chorus
A         E/G#           F#m            D                 A
  We are hungry, we are hungry We are hungry for more of you
         E/G#       F#m            D                F#m F#m A A
We are thristy, oh Jesus We are thristy for more of you

After 1st chorus repeat intro riff x4

Verse 2 x1
A        D             F#m            D
Lord, I want more of you  Holy Sorit rain on me
A        D             F#m                  D
Lord, I need more of you  Living breath of life come fill me up (F#m F#m D)

Lead guitarist comes in verse 1st time and does same thing from first verse

Repeat Chorus x2

At end of chours do this end riff
e|--------------------------------------------------------------------------|
B|--------------------------------------------------------------------------|
G|-14-16-13-14-11~-14-16-13-14-----14-16-13-14-11~--------------------------|
D|-----------------------------14~------------------------------------------|
A|--------------------------------------------------------------------------|
E|--------------------------------------------------------------------------|

And Then repeat verse 2 x1 with no guitar

then repeat chorus x4

then repeat the end riff


| /  slide up
|   slide down
| h  hammer-on
| p  pull-off
| ~  vibrato
| +  harmonic
| x  Mute note
============================================================================
Suggest correction
comments
print report bad tab
1 comment total.
0 reply
edsirucha 42 wrote on September 14 2013, 07:04 pm

Not bad I tried for the intro the following

e--------------------------------------
B-------13-12--------13-12-10-12--------------
G-----12------9----12------------12-------------
D----------------12--------------------------
A-------------------------------------------
E---------------------------------------------

Tell me what u think edsirucha@hotmail.com

guest
You may want to rate the tab now too:
select rating
Wanna post a correction for this tab? Suggest correction