Oops, an error
Loading. Please wait.

While My Guitar Gently Weeps bass

version 1
version 1

Whole song

Interactive

1,111 views 3 this week
no commentswrite comment
1 2 3 4 5
1 last vote to show rating
add to favorites
×
Save as Personal and add changes to this tab that will be seen only by you. Learn more ›
×
You can save this tab as Personal to edit and correct it or add notes. All changes will be seen only by you. Learn more »
launch autoscroll
font size
0
reset
guitar tuner
backing track
0:00
0:00
edit
Autoscroll
slow
fast
+/-
esc
set tempo
stop
Author
Difficulty
JEFF HEALEY Band
While my guitar
     gently weeps

Bassist: Joe Rockman

Bass Tabs
(source: UltimateGuitar)


Tuning : EADG
Tempo : 135 bpm
Key: A

INTRO: 00:00  (play X2)
G|-------------|-------------|-------------|--------------|
D|-7g~~~-------|-5g~~~-------|-4g~~~-------|-3g~~~--------|
A|-------------|-------------|-------------|--------------|
E|-------------|-------------|-------------|--------------|

G|-------------|-------------|-------------|--------------|
D|-7g~~~-------|-5g~~~-------|-------------|-----------6--|
A|-------------|-------------|-5g~~~-------|-7--7--7-7----|
E|-------------|-------------|-+----+-+----|-+--+--+-+-+--|


G|-------------|-------------|-------------|--------------|
D|-7g---7h-----|-5g---5h-----|-4g---4h-----|-3g---3h-\-5--|
A|-------------|-------------|-------------|--------------|
E|------+------|------+------|------+------|------+-------|

G|-----9g------|-----7g------|-------------|------------------|
D|-7g----------|-5g----------|-------------|-------------6----|
A|-------------|-------------|-3\5g--5-5---|-5/7g--7-7-9---7--|
E|-----+-------|-----+-------|---+---+-+---|-+-+---+-+-+-+-+--|

VERSE1: 00:28
G|-------------|-------------|-------------|--------------|
D|-7g---7h-----|-5g---5h-----|-4g---4h-----|-3g---3h------|
A|-------------|-------------|-------------|--------------|
E|------+------|------+------|------+------|------+-------|
  I look at you all see the love
  there that’s sleeping

G|-----9g------|-----7g------|-------------|------------------|
D|-7g----------|-5g----------|-------------|-------------6----|
A|-------------|-------------|-3\5g--5-5---|-5/7g--7-7-9---7--|
E|-----+-------|-----+-------|---+---+-+---|-+-+---+-+-+-+-+--|
 while my guitar gently weeps


VERSE2: 00:42
G|-------------|-------------|-------------|--------------|
D|-7g---7h-----|-5g---5h-----|-4g---4h-----|-3g---3h-\-5--|
A|-------------|-------------|-------------|--------------|
E|------+------|------+------|------+------|------+-------|
  I look at the floor and I see
  it needs sweeping

G|-----9g------|-----7g------|--------------|---9g--------------|
D|-7g----------|-5g----------|-7\10g--7/10g-|-7\-----------6----|
A|-------------|-------------|--------------|--------7-7-9---7--|
E|-----+-------|-----+-------|----+-----+---|-+-+----+-+-+-+-+--|
  still my guitar gently weeps

BRIDGE1: 00:57
G|-------------|-------------|-------------|--------------|
D|-7g~~~-------|-6g---6h-----|-4g---4h-----|-2g-----------|
A|-------------|-------------|-------------|--------------|
E|------+------|------+------|------+------|--------------|
  I don’t know why
  nobody told you

G|---------|----------|------------------|-------------|
D|---------|----------|------------------|-------6-----|
A|-2-4-----|----------|-4-5-7--7-9--9-11-|-7-7-9---7g--|
E|-+---\7g-|-7h--5-7g-|------------------|-------------|
  how to unfold your love

G|-------------|-------------|-------------|--------------|
D|-7g---7h-----|-6g---6h-----|-4g---4h-----|-2g-----------|
A|-------------|-------------|-------------|--------------|
E|------+------|------+------|------+------|--------------|
  I don’t know why
  someone controlled you

G|---------|----------|------------------|-------------|
D|---------|----------|------------------|-------6-----|
A|-2-4-----|----------|-4-5-7--7-9--9-11-|-7-7-9---7g--|
E|-+---\7g-|-7h--5-7g-|------------------|-------------|
  they bought and sold you


VERSE3: 01:25
G|-------------|-------------|-------------|--------------|
D|-7g---7h-----|-5g---5h-----|-4g---4h-----|-3g---3h------|
A|-------------|-------------|-------------|--------------|
E|------+------|------+------|------+------|------+-------|
   I look at the world
   and I notice it’s turning


G|-----9g------|-----7g------|-------------|------------------|
D|-7g----------|-5g----------|-------------|-------------6----|
A|-------------|-------------|-3\5g--5-5---|-5/7g--7-7-9---7--|
E|-----+-------|-----+-------|---+---+-+---|-+-+---+-+-+-+-+--|
  still my guitar gently weeps


VERSE4: 01:40
G|-------------|-------------|-------------|--------------|
D|-7g---7h-----|-5g---5h-----|-4g---4h-----|-3g---3h-\-5--|
A|-------------|-------------|-------------|--------------|
E|------+------|------+------|------+------|------+-------|
   With ev’ry mistake
   we must surely be learning

G|-----9g------|-----7g------|--------------|---9g--------------|
D|-7g----------|-5g----------|-7\10g--7/10g-|-7\-----------6----|
A|-------------|-------------|--------------|--------7-7-9---7--|
E|-----+-------|-----+-------|----+-----+---|-+-+----+-+-+-+-+--|
  still my guitar gently weeps


  well...

GUITAR SOLO: 01:54
G|-------------|-------------|-------------|--------------|
D|-7g~~~-------|-5g---5h-----|-4g---4h-----|-3g---3h-\-5--|
A|-------------|-------------|-------------|--------------|
E|------+------|------+------|------+------|------+-------|

G|-----9g------|-----7g------|-------------|------------------|
D|-7g----------|-5g----------|-------------|-------------6----|
A|-------------|-------------|-3\5g--5-5---|-5/7g--7-7-9---7--|
E|-----+-------|-----+-------|---+---+-+---|-+-+---+-+-+-+-+--|

...

G|-------------|-------------|-------------|--------------|
D|-7g---7h-----|-5g---5h-----|-4g---4h-----|-3g---3h-\-5--|
A|-------------|-------------|-------------|--------------|
E|------+------|------+------|------+------|------+-------|

G|-----9g------|-----7g------|--------------|---9g--------------|
D|-7g----------|-5g----------|-7\10g--7/10g-|-7\-----------6----|
A|-------------|-------------|--------------|--------7-7-9---7--|
E|-----+-------|-----+-------|----+-----+---|-+-+----+-+-+-+-+--|


BRIDGE2: 02:23
G|-------------|-------------|-------------|--------------|
D|-7g~~~-------|-6g---6h-----|-4g---4h-----|-2g-----------|
A|-------------|-------------|-------------|--------------|
E|------+------|------+------|------+------|--------------|
  I don’t know why
   you were diverted

G|---------|----------|------------------|-------------|
D|---------|----------|------------------|-------6-----|
A|-2-4-----|----------|-4-5-7--7-9--9-11-|-7-7-9---7g--|
E|-+---\7g-|-7h--5-7g-|------------------|-------------|
  you were perverted too

G|-------------|-------------|-------------|--------------|
D|-7g---7h-----|-6g---6h-----|-4g---4h-----|-2g-----------|
A|-------------|-------------|-------------|--------------|
E|------+------|------+------|------+------|--------------|
  I don’t know how
  you were inverted

G|---------|----------|------------------|-------------|
D|---------|----------|------------------|-------6-----|
A|-2-4-----|----------|-4-5-7--7-9--9-11-|-7-7-9---7g--|
E|-+---\7g-|-7h--5-7g-|------------------|-------------|
  no one alerted you

VERSE5: 02:51
G|-------------|-------------|-------------|--------------|
D|-7g~~~-------|-5g---5h-----|-4g---4h-----|-3g---3h-\-5--|
A|-------------|-------------|-------------|--------------|
E|------+------|------+------|------+------|------+-------|
  I look at you all see the love there
  that’s sleeping

G|-----9g------|-----7g------|-------------|------------------|
D|-7g----------|-5g----------|-------------|-------------6----|
A|-------------|-------------|-3\5g--5-5---|-5/7g--7-7-9---7--|
E|-----+-------|-----+-------|---+---+-+---|-+-+---+-+-+-+-+--|
 while my guitar gently weeps

VERSE6: 03:05
G|-------------|-------------|-------------|--------------|
D|-7g---7h-----|-5g---5h-----|-4g---4h-----|-3g---3h------|
A|-------------|-------------|-------------|--------------|
E|------+------|------+------|------+------|------+-------|
  look at you all....


G|-----9g------|-----7g------|-------------|------------------|
D|-7g----------|-5g----------|-------------|-------------6----|
A|-------------|-------------|-3\5g--5-5---|-5/7g--7-7-9---7--|
E|-----+-------|-----+-------|---+---+-+---|-+-+---+-+-+-+-+--|
  still my guitar gently weeps

GUITAR SOLO: 03:19   (REPEAT TIL FADE OUT)
G|-------------|-------------|-------------|--------------|
D|-7g~~~-------|-5g---5h-----|-4g---4h-----|-3g---3h-\-5--|
A|-------------|-------------|-------------|--------------|
E|------+------|------+------|------+------|------+-------|

G|-----9g------|-----7g------|-------------|------------------|
D|-7g----------|-5g----------|-------------|-------------6----|
A|-------------|-------------|-3\5g--5-5---|-5/7g--7-7-9---7--|
E|-----+-------|-----+-------|---+---+-+---|-+-+---+-+-+-+-+--|

... while   my   guitar   gently   weeps

G|-------------|-------------|-------------|--------------|
D|-7g---7h-----|-5g---5h-----|-4g---4h-----|-3g---3h-\-5--|
A|-------------|-------------|-------------|--------------|
E|------+------|------+------|------+------|------+-------|

G|-----9g------|-----7g------|-------------|------------------|
D|-7g----------|-5g----------|-------------|-------------6----|
A|-------------|-------------|-3\5g--5-5---|-5/7g--7-7-9---7--|
E|-----+-------|-----+-------|---+---+-+---|-+-+---+-+-+-+-+--|


End: 05:17


Tablature Legend ----------------
| S  slap
| P  pop
| x  mute note
| /  slide up
| \  slide down
| h  hammer-on
| p  pull-off
| g  grace note
| ~  vibrato
| ^  brush up
Suggest correction
Creating personal tab
Creating personal tab
You can edit any tab online and save it as your Personal.

You can edit, replace or remove any tab part or add personal notes – all changes will be seen only by you.

Personal tabs can be accessed anytime from any device, even offline.
Learn more »
Give kudos to tab author, rate the tab!
1 2 3 4 5
comments
print report bad tab
guest
You may want to rate the tab now too:
select rating
Wanna post a correction for this tab? Suggest correction