Oops, an error
Loading. Please wait.

While My Guitar Gently Weeps Tab

version 1
version 1

Whole song

Interactive

58,031 views 60 this week
3 commentsread comments
1 2 3 4 5
x 10
add to favorites
launch autoscroll
font size
0
reset
how to read this tab
guitar tuner
Autoscroll
slow
fast
+/-
esc
set tempo
stop
Help us to improve Ultimate-Guitar.com Take our survey!
×
Author
Difficulty
intermediate
While My guitar Gently weeps -Jeff Healey cover version

Tabbed by :Prusche

e|-------0---------------0---------|-------0---------------1---------|
B|-----------1---------------1-----|-----------1---------1-1-1s3S1---|
G|-----2-------2-------2-------2---|-----2-------2-----2---2-2s4S2---|
D|---2-----2-----2---2-----2-----2-|---2-----------2-----------------|
A|-0-------------------------------|---------------------------------|
E|-----------------3---------------|-2-------2-------1-------------3-|

e|-------0---------------3------------|
B|-----1-----1---------3-----3--------|
G|---2---------2-----0---------0------|
D|---------2-----2---------0-----0----|
A|-0----------------------------------|
E|-----------------3------------------|

   Gtr I
e|---------2-----0-----------------|-0-0-0--0--0-0---0---0---0-----0--|
B|-----3-----3---0-----0---0-------|-1-1-1--1--1-1---1---1---1-----1--|
G|---2---2-----2-----1---1---1-----|-2-2-2--2--2-2---2---2---2-----2--|
D|-0---------------------------2---|-2-2-2--2--2-2---2---2---2-----2--|
A|---------------------------------|-0-0-0--0--0----------------------|
E|-----------------0---------------|-------------3---3---3---3-----3--|
|
 | Gtr II
e|---------------------------------|----------------------------------|
B|---------------------------------|-----------------5-5-8-5----------|
G|---------------------------------|-----------4-5h7---------7b9==(7)r|
D|---------------------------------|-7-----(7)------------------------|
A|---------------------------3S7-7-|----------------------------------|
E|---------------------------------|----------------------------------|

e|------------------------------------5------------|
B|-----------------8b10-(8)pb10---------8-5--------|
G|-(7)-5-7-(7)-5----------------------------7pb9r==|
D|---------------7---------------------------------|
A|-------------------------------------------------|
E|-------------------------------------------------|

e|-----------------------------------------|
B|-----------------------------------------|
G|-(7)-5---------5h7p5-4-----------5-2s(9)-|
D|-------7-(7)-----------5-----5-7---------|
A|-------------------------5s7-------------|
E|-----------------------------------------|
                                                [Verse 1] (Gtr I strums the intro chords throughout
                                                           all of the verses)
|----------5-----------5------------------------||----------------------|
|-8---10-----8-----------8-5--------------------||----------------------|
|---9----------7b9-(7)-------7b9==(7)r(7)-5-----||----------------------|
|-------------------------------------------7-5-||-7--------------------|
|-----------------------------------------------||----------------------|
|-----------------------------------------------||----------------------|

 0:40
e|----------------5---8-5----------5----------------|-----------------------|
B|------------------5-----8b10-(8)-5-8--------------|-----------------------|
G|---7b9==(7)-(7)----------------------7b9==(7)r(7)-|-5---------------------|
D|--------------------------------------------------|---7-------(7)---------|
A|--------------------------------------------------|-----------------------|
E|--------------------------------------------------|-----------------------|

e|---------------------------|---------------------|
B|---------------------------|---------------------|
G|---------------------------|---------------------|
D|-(7)-----------------------|---------------------|
A|---------------------------|---------------------|
E|---------------------------|---------------------|

 0:53
e|---8-5-----------8---------------------------------------------|
B|-------8b10==(8)---8r(8)-5-------------------------------------|
G|---------------------------7b9-(7)-7b9-(7)---7b9==(7)r(7)-5----|
D|---------------------------------------------------------------|
A|---------------------------------------------------------------|
E|---------------------------------------------------------------|

 [Bridge 1]
   A              C#m            F#m            C#m                Bm
e|-----------------------------|---------------------------------|---------------------------------|
B|-----------------------------|---------------------------------|---------------------------------|
G|-----------------------------|---------------------------------|---------------------------------|
D|-7---------------------------|---------------------------------|---------------------------------|
A|-----------------------------|---------------------------------|---------------------------------|
E|-----------------------------|---------------------------------|---------------------------------|

 1:08
   E
e|-----/9---7---------------------------------------------|
B|-----/9---7--7------------------12----------------------|
G|---------------11b13==(11)-(11)----11r(11)-9-11----9h11S|
D|------------------------------------------------11------|
A|--------------------------------------------------------|
E|--------------------------------------------------------|

    A             C#m             F#m            C#m                Bm
e|-------------------------------|
B|-------------------------------|
G|-14----------------------------|
D|-------------------------------|
A|-------------------------------|
E|-------------------------------|

 1:28 E
e|-----12p9------9---------------------------------9-------------------------||
B|----------12p9---12p9------------12-9--------------12p9--------------------||
G|----------------------11b13-(11)------11b13-(11)--------11pb13r(11)-9-11S==||
D|---------------------------------------------------------------------------||
A|---------------------------------------------------------------------------||
E|---------------------------------------------------------------------------||


 [Verse 2]
e|---------------------------|
B|---------------------------|
G|-14------------------------|
D|---------------------------|
A|---------------------------|
E|---------------------------|

 1:37                 ~~~~~~
e|---8pb10====(8)r-8b8.5-5-(5)----------------------|
B|-------------------------------8------------------|
G|---------------------------------7b9==(7)r(7)-5---|
D|------------------------------------------------7-|
A|--------------------------------------------------|
E|--------------------------------------------------|

e|----------------------------|
B|----------------------------|
G|----------------------------|
D|-(7)---------(7)\-----------|
A|----------------------------|
E|----------------------------|


e|-0-0-0-0-0-0-0-0-0-0-0-0-0-|-0-0-0-0-0-3-3-3-3-3-3-3-|
B|-1-1-1-1-1-1-1-1-1-1-1-1-1-|-1-1-1-1-1-3-3-3-3-3-3-3-|
G|-2-2-2-2-2-2-2-2-2-2-2-2-2-|-2-2-2-2-2-0-0-0-0-0-0-0-|
D|-2-2-2-2-2-3-3-3-3-3-3-3-3-|-2-2-2-2-2-0-0-0-0-0-0-0-|
A|-----------3-3-3-3-3-3-3-3-|-0-0-0-0-0-2-2-2-2-2-2-2-|
E|-2-2-2-2-2-----------------|-----------3-3-3-3-3-3-3-|
|
e|---------------------------|-------------------------|
B|---------------------------|-------------------------|
G|---------------------------|-------------------------|
D|---------------------------|-------------------------|
A|---------------------------|-------------------------|
E|---------------------------|-------------------------|

 1:51
e|-----------------5--------------------||
B|---------------5---5----------5----5--||
G|-------7b9-(7)-------7b9==(7)---7r----||
D|--------------------------------------||
A|--------------------------------------||
E|--------------------------------------||


  Guitar Solo
e|-10b12==(10)-(10)-----(10)r-8-10-12-8-----------|
B|--------------------------------------10-10b13==|
G|------------------------------------------------|
D|------------------------------------------------|
A|------------------------------------------------|
E|------------------------------------------------|

e|------------------------------------------------5---|
B|-(10)-----(10)r(10)-8-10-(10)-8---------------5-----|
G|--------------------------------9s7-5-7b9-(7)-------|
D|--------------------------------------------------7-|
A|----------------------------------------------------|
E|----------------------------------------------------|

e|-----------------------------------|
B|-------------5---------------------|
G|-------4-5-7---7-5-7-4-----------5-|
D|-(7)-7-----------------5-----5-7---|
A|-------------------------5S7-------|
E|-----------------------------------|

e|------------------------------------------------8p5-----5-------5-----------------------|
B|----------5-8p5----5--------------------------------8p5---8p5-----8p5-------------------|
G|-7b9==(7)-------7r---7b9==(7)r(7)p5-7-(7)p5-------------------7-------7b9==(7)r(7)p5----|
D|--------------------------------------------7-5--------------------------------------7--|
A|----------------------------------------------------------------------------------------|
E|----------------------------------------------------------------------------------------|

e|-----------------------------------------|
B|-----------------------------------------|
G|------12------14--------12------14-------|
D|-7S14----7S14------7S14----7S14----10S14-|
A|-----------------------------------------|
E|-----------------------------------------|
           ~~~~~~~~~
|--------------------------------------------------------------------|
|-------------------------------------20---------------------20pb22==|
|-12-------17---(17)-19b21==(19)-(19)----19r(19)p17-19-17-17---------|
|----14-19-----------------------------------------------------------|
|--------------------------------------------------------------------|
|--------------------------------------------------------------------|
                                                    ~~~~~~~
|------------------------------------------------------------------------------------|
|-(20)-20r(20)-17--------------------------------------------------------------------|
|-----------------19pb21r19-17----17-19b21-(19)-17-19-(19)---17-------------17----17-|
|------------------------------19-------------------------------19-17-17-19----19----|
|------------------------------------------------------------------------------------|
|------------------------------------------------------------------------------------|
                    ~~~~~~~                            ~~~~~~~
|--------------------------------------------------------------------||
|--------------------------20pb22-20pb21==(20)r-20-19-17-(17)--------||
|-19b21==(19)r(19)-17---17------------------------------------19-16/-||
|--------------------------------------------------------------------||
|--------------------------------------------------------------------||
|--------------------------------------------------------------------||


 [Bridge 2]
                                      2:27
e|----------------------------------|--------------------------------------|
B|----------------------------------|--------------------------------------|
G|-18-------------18s16-------------|-18---------------16-------(16)-------|
D|----------------------------------|-19---------------18-------(18)-------|
A|----------------------------------|--------------------------------------|
E|----------------------------------|--------------------------------------|

e|----------------------------------------|
B|----------------------------------------|
G|-16s14----------------------------------|
D|-18s16----------------------------------|
A|----------------------------------------|
E|----------------------------------------|

 2:34
e|---10pb12-----10-9---------------------------|
B|-------------------10------10----------------|
G|----------------------9S11----11-9-(9)---9---|
D|-------------------------------------------9h|
A|---------------------------------------------|
E|---------------------------------------------|

                                 2:40
e|------------------------------|------------------------------------------|
B|------------------------------|------------------------------------------|
G|------------------------------|-18-------(18)-------16-------(16)--------|
D|-11---------------------------|-19-------(19)-------18-------(18)--------|
A|------------------------------|------------------------------------------|
E|------------------------------|------------------------------------------|

e|----------------------------------|
B|----------------------------------|
G|-14-------------------------------|
D|-16-------------------------------|
A|----------------------------------|
E|----------------------------------|

  2:47                                                              Verse 3
e|---9-----------------------------------------------------------||-------------------------------|
B|-----12--------------------------------------------------------||-------------------------------|
G|--------11b13==(11)r(11)-9-11b13==(11)-(11)r==(11)-9-11----9---||-14---------(14)\--------------|
D|--------------------------------------------------------11-----||-------------------------------|
A|---------------------------------------------------------------||-------------------------------|
E|---------------------------------------------------------------||-------------------------------|

 3:02
e|---10pb12-----10-8-10b12==(10)---10r(10)-8------------|
B|-------------------------------------------10S==13----|
G|------------------------------------------------------|
D|------------------------------------------------------|
A|------------------------------------------------------|
E|------------------------------------------------------|
             3:06
|--------------------------------|
|-10\--------10b13==(10)---------|
|--------------------------------|
|--------------------------------|
|--------------------------------|
|--------------------------------|

e|---------------------------------------5------------------|-----------------------------|
B|-(10)r====(10)-8-10-(10)-----------------5-8--------------|-----------------------------|
G|-------------------------9s7-5-7b9-(7)-------[7]b9==([7])r|=([7])-5---------------------|
D|----------------------------------------------------------|---------7-(7)---7S5-----5S7-|
A|----------------------------------------------------------|-----------------------------|
E|----------------------------------------------------------|-----------------------------|
[Outro]
                                                  ~~~~         ~~~~           ~~~~         ~~~~
|-8-------------11----12---14-12-15-14-||-15b17-(15)---15b17-(15)-----15b17-(15)---15b17-(15)-----|
|-------8-10S13----14------------------||---------------------------------------------------------|
|-5-7S9--------------------------------||---------------------------------------------------------|
|--------------------------------------||---------------------------------------------------------|
|--------------------------------------||---------------------------------------------------------|
|--------------------------------------||---------------------------------------------------------|
          ~~~~           ~~~~
|-15b17-(15)-----15b17-(15)-----20b22-(20)---(20)---------|
|---------------------------------------------------------|
|---------------------------------------------------------|
|---------------------------------------------------------|
|---------------------------------------------------------|
|---------------------------------------------------------|

e|---20b21-17-----------------------------------------------------17------------------17-------|
B|------------20-17--------------------------------------------17----20p17-20b22-(20)----20p17-|
G|------------------19b21==(19)r(19)p17----19----17-19b21-(19)---------------------------------|
D|--------------------------------------19----19-----------------------------------------------|
A|---------------------------------------------------------------------------------------------|
E|---------------------------------------------------------------------------------------------|

e|--------------17-------------|
B|-----------17----20p17----17-|
G|19b21-(19)-------------19----|
D|-----------------------------|
A|-----------------------------|
E|-----------------------------|

e|---------------------------------20b22==(20)r(20)p17----17-22pb23---22pb24======(22)r(22)-17-20-20pb22-|
B|-----------------------------------------------------20------------------------------------------------|
G|-19b21==(19)r(19)p17----19p17--------------------------------------------------------------------------|
D|---------------------19-------19----------------------------------0------------------------------------|
A|-------------------------------------------------------------------------------------------------------|
E|-------------------------------------------------------------------------------------------------------|

e|-20-17-20-20pb22==(20)r(20)-17-20-20pb22==(20)r(20)-17-20-20pb22==(20)r(20)-17-20-20pb22==(20)r(20)-17-|
B|-------------------------------------------------------------------------------------------------------|
G|-------------------------------------------------------------------------------------------------------|
D|-------------------------------------------------------------------------------------------------------|
A|-------------------------------------------------------------------------------------------------------|
E|-------------------------------------------------------------------------------------------------------|

e|20-20pb22==(20)r(20)-17---20-20pb22==(20)r(20)-17----17----------------------------------------------------|
B|--------------------------------------------------20----20pb22====(20)r(20)p==17----17---------------------|
G|---------------------------------------------------------------------------------19----19pb21==(19)r(19)p17|
D|-----------------------------------------------------------------------------------------------------------|
A|-----------------------------------------------------------------------------------------------------------|
E|-----------------------------------------------------------------------------------------------------------|
                ~~~~           ~~~~

e|----------------------------------------------------|
B|-------------------20-20-20-------------------------|
G|----17-19b21==(19)-19-19-19-19r(19)p17----17--------|
D|-19------------------------------------19----19p17h=|
A|----------------------------------------------------|
E|----------------------------------------------------|

e|----------------------------------------------------------------|
B|-------20b22-(20)-----20b22-(20)--------------------------------|
G|-----------------------------------(0)-----19pb21==(19)r(19)-17-|
D|-19-19---------------------------------(0)----------------------|
A|----------------------------------------------------------------|
E|----------------------------------------------------------------|
         
e|-------------------------------------------------------------------------------|
B|-------------------------------------------------------------------------------|
G|-19----17---19----17---19----17-19----17-19----17-19----17-19----17-19----17---|
D|----19---------19---------19-------19-------19-------19-------19-------19------|
A|-------------------------------------------------------------------------------|
E|-------------------------------------------------------------------------------|
                             ~~~~~~~                                     ~~~
|--------------------------------------------------------------------20-20-|
|-----------------------------------------------20b22==(20)r(20)-17--------|
|-19b21==(19)r(19)p17----17------------------------------------------------|
|---------------------19----19-(19)-17-------------------------------------|
|--------------------------------------19-17S15----------------------------|
|--------------------------------------------------------------------------|
~~~~~~        ~~~~~~~
|-(20)-17-19-19-(19)----17-20-17-19----17--------------|
|--------------------20-------------20----20b22==(20)--|
|------------------------------------------------------|
|------------------------------------------------------|
|------------------------------------------------------|
|------------------------------------------------------|

e|---------------------------------------------------------------------------|
B|-(20)r20-17--------------------------------20-------------20---------------|
G|------------19b21==(19)r(19)-17-19b21-(19)----19b21==(19)----19r(19)p17----|
D|------------------------------------------------------------------------19-|
A|---------------------------------------------------------------------------|
E|---------------------------------------------------------------------------|

e|--------------------------------------------------------------|
B|--------------------------17-17-17-17-17-17------------17-17--|
G|---------17-19-19b21-(19)-------------------19b21-(19)--------|
D|-(19)-19------------------------------------------------------|
A|--------------------------------------------------------------|
E|--------------------------------------------------------------|

e|--------------------------------------------------------------------------------------------|
B|--------17---------17---------17--17-17--------17--17---------17--(17)--17------------------|
G|-19b21-(19)-19b21-(19)-19b21-(19)-------19b21-(19)----19b21==(19)-(19)r----19b21==(19)r(19)-|
D|--------------------------------------------------------------------------------------------|
A|--------------------------------------------------------------------------------------------|
E|--------------------------------------------------------------------------------------------|
                   ~~~~
|---------------------------------------------------|
|---------------------------------------------------|
|-17-19----17-19-(19)---17-(17)---17b21-(17)--------|
|-------19------------------------------------------|
|---------------------------------------------------|
|---------------------------------------------------|

e|---------------------------------------------------------|
B|---------------------------------------------------------|
G|-(17)-----17------------------------------19b20==(19)-19-|
D|-------------19-(19)-19-17-------------------------------|
A|---------------------------[19]b22-([19])----------------|
E|---------------------------------------------------------|
                                                                  ~~~~
|---------------------------------17h19b20==(19)r(19)-17-22b24==(22)------|
|------------------20pb22r(20)-17-----------------------------------------|
|-19r(19)-17-19-17--------------------------------------------------------|
|-------------------------------------------------------------------------|
|-------------------------------------------------------------------------|
|-------------------------------------------------------------------------|
   
e|-22r---22b24==(22)r(22)b24==(22)r(22)-(22)b24==(22)r(22)b24==(22)r(22)b24==(22)r|
B|--------------------------------------------------------------------------------|
G|--------------------------------------------------------------------------------|
D|--------------------------------------------------------------------------------|
A|--------------------------------------------------------------------------------|
E|--------------------------------------------------------------------------------|
                                                                         ~~
|-(22)b24==(22)r(22)-(22)b24==(22)r(22)b24====(22)r(22)-20p17-20b22-(20)-20---17-20--|
|------------------------------------------------------------------------------------|
|------------------------------------------------------------------------------------|
|------------------------------------------------------------------------------------|
|------------------------------------------------------------------------------------|
|------------------------------------------------------------------------------------|

e|-17---------------------------------------------------------|
B|----20b22==(20)-(20)-(20)---(20)r(20)p17-20b22---(20)-------|
G|------------------------------------------------------------|
D|------------------------------------------------------------|
A|------------------------------------------------------------|
E|------------------------------------------------------------|

e|---8s10-----(10)---[8]-(8)-5-----8-5-----5---8-|
B|---8s10-----(10)-------------8-5-----8-8-------|
G|-----------------------------------------------|
D|-----------------------------------------------|
A|-----------------------------------------------|
E|-----------------------------------------------|

e|--------------------------------8------8-|
B|-8s10-8h10-10-10---8h10-10-8h10---10-----|
G|-----------------------------------------|
D|-----------------------------------------|
A|-----------------------------------------|
E|-----------------------------------------|

e|-10b12==(10)r(10)-8------8----8------8-10b12==(10)r(10)-8-----------8------8-|
B|--------------------10-----10---10------------------------10-8-10-----10-----|
G|-----------------------------------------------------------------------------|
D|-----------------------------------------------------------------------------|
A|-----------------------------------------------------------------------------|
E|-----------------------------------------------------------------------------|

e|-10b12==(10)-10-10-10-10-10---10r(10)-8-10-10-10p8--15b17==(15)-|
B|----------------------------------------------------------------|
G|----------------------------------------------------------------|
D|----------------------------------------------------------------|
A|----------------------------------------------------------------|
E|----------------------------------------------------------------|

e|-(15)r====(15)p12-15-12-15p14p12----12------------------------------------|
B|---------------------------------15----15p13----13-12h13p12---------------|
G|---------------------------------------------14-------------14p12h14p12---|
D|--------------------------------------------------------------------------|
A|--------------------------------------------------------------------------|
E|--------------------------------------------------------------------------|

e|--------------------------------------------------------------------------------------------------------|
B|-------------------------------13-15b17==(15)r(15)p13-15p13-15p13-15p13-15p13-15p13-15p13-15p13-15p==13-|
G|----------------------14p12-14--------------------------------------------------------------------------|
D|-14p12-10----10-12s14-----------------------------------------------------------------------------------|
A|----------12--------------------------------------------------------------------------------------------|
E|--------------------------------------------------------------------------------------------------------|

e|-------------------------------------------------------------------x-------------------|
B|-15b17-(15)-15-13-15-13-15-13-15-13-15-13-15-13-15-13-15b19-(15)---x-15b17==(15)r======|
G|-------------------------------------------------------------------x-------------------|
D|---------------------------------------------------------------------------------------|
A|---------------------------------------------------------------------------------------|
E|---------------------------------------------------------------------------------------|
                                                               
e|--------------------------------------------------------------17---|
B|-(15)-13----13--------------------20b22==(20)r(20)---17-20-17------|
G|---------14----14-(14)-12------------------------------------------|
D|--------------------------14-12------------------------------------|
A|-------------------------------------------------------------------|
E|-------------------------------------------------------------------|

e|-20b22-(20)---17---(17)----17-20b22==(20)-20---20-20r------*|
B|------------------------20---------------------------------*|
G|------------0----------------------------------------------*|
D|-----------------------------------------------------------*|
A|-----------------------------------------------------------*|
E|-----------------------------------------------------------*|



************************************

| s    Slap
| h    Hammer-on
| b    Bend
| (n)  Ghost note
| pb   Pre-bend
| p    Pull-off
| /    Slide up
| r    Release
| ~    Vibrato
| \    Slide down
| x    Dead note

************************************
Suggest correction
comments
print report bad tab
3 comments total.
0 reply
drop_like_a_zep 10 Feb 06, 2007 04:23 PM

good tab man sounds good

0 reply
demonmouse500 20 Nov 22, 2007 07:05 PM

Looks good, judging by what I've tried out already, but the lines are too long to print without looking like this:


|-------------------------
--------|
|-------------------------
--------|
|-------------------------
--------|
|-------------------------
--------|
|-------------------------
--------|
|-------------------------
--------|


(except longer)
And nine pages is a lot to learn off the computer...
:(

0 reply
rocknroll93 30 Nov 25, 2007 04:51 AM

hard. the start is confusing that's all rest of it is good

guest
You may want to rate the tab now too:
select rating
Wanna post a correction for this tab? Suggest correction