Oops, an error
Loading. Please wait.

Jato Unit Tab

version 1
version 1

Whole song

Interactive

5,993 views 18 this week
2 commentsread comments
1 2 3 4 5
worth learning
x 3
add to favorites
launch autoscroll
font size
0
reset
how to read this tab
guitar tuner
Tab Pro tools
  • play this tab
  • loop segment
  • change instrument
  • show fretboard
  • metronome
×
Best way to learn
"Jato Unit"
Autoscroll
slow
fast
+/-
esc
set tempo
stop
SONG:JATO UNIT
ALBUM:ZERO ORDER PHASE
TUNING:7 STRING DROP A# (LOWEST TO HIGHEST A#,D#,G#,C#,F#,A#,D#) 
TABBED BY:LEWIS EBDON

INTRO
                  X3
|----------------------|-------------------------|
|----------------------|-------------------------|
|----------------------|-------------------------|
|----------------------|-------------------------|
|-8-----8----8---------|-8-----8-----9-----9-----|
|---7-0--7-0--7-0-7-5-0|---7-0---7-0---8-0---8-0-|
|----------------------|-------------------------|

               X3
|-------------------------|-------------------------|------------|
|-------------------------|-------------------------|------------|
|-------------------------|-------------------------|------------|
|-------------------------|-------------------------|------------|
|-------------------------|-------------------------|------------|
|-8-----8-----8-----------|-8-----8-----9-----9-----|-3--6--5--2-|
|---7-0---7-0---7-0-7-5-0-|---7-0---7-0---8-0---8-0-|------------|

HERE ARE MOST OF THE SOLOS 

|-AH-----------AH------9-9-|-10-9---10-9--------9-----------------|
|-12BU===12BD--12BU====----|--P--13--P--13-10-13--13-10-9-13-10-9-|
|--------------------------|-------------------------------P------|
|--------------------------|--------------------------------------|
|--------------------------|--------------------------------------|
|--------------------------|--------------------------------------|
|--------------------------|--------------------------------------|

|--------------------------------------------------------------------|
|---10-9--------9----------------------------------------------------|
|-11-P--11-10-11--11-10-7-10-11-10-7--10-7-------7-------------------|
|-------P---------P----------P------11-P--11-9-11--11-9-7-9/11=======|
|------------------------------------------P------------P------------|
|--------------------------------------------------------------------|
|--------------------------------------------------------------------|

|--------------------------------------------|-----------------------------------------------|
|--------------------------------------------|---------------------------------14------------|
|-----------------------------------------11-|---------------11-13-14-13-14-16---16-14-13-14-|
|-11-12-11--------11--------------11-12-14---|-14-12-11-12-14--------------------------------|
|-P-------14-12-14--14-12-11-12-14-----------|-----------------------------------------------|
|--------------------------------------------|-----------------------------------------------|
|--------------------------------------------|-----------------------------------------------|

|---------------14-16--14/16-17-19-17-16/14--14----------14-14--16-14-----19-------------|
|----14--16--17--------P-------------------17--17-14-17BU-------------18-----18=========-|
|-16-------------------------------------------P-----------------------------------------|
|----------------------------------------------------------------------------------------|
|----------------------------------------------------------------------------------------|
|----------------------------------------------------------------------------------------|
|----------------------------------------------------------------------------------------|


|---------------------------------------------------------------|
|-22BU==-22BD==-22BU-22-22BU-22-22BU-22--22BU==22BD==-22=====19-|
|---------------------------------------------------------------|
|---------------------------------------------------------------|
|---------------------------------------------------------------|
|---------------------------------------------------------------|
|---------------------------------------------------------------|

|--------------------------------------------|
|-22-19---22-19---22-19---22-22-19---24-19---|
|-P----22-P----22-P----22----P----22-P----22-|
|--------------------------------------------|
|--------------------------------------------|
|--------------------------------------------|
|--------------------------------------------|

|--------------------------------------------|-------------------------18---19-18-22-|
|-22-19--------21----------------------------|---------18---19-18-22-20--22----------|
|-P----22-21-22--22-21-22-21-22-21-23-21/19==|-16-21-19--22-P------P-----------------|
|------P---------P-----P-----P------P--------|---------------------------------------|
|--------------------------------------------|---------------------------------------|
|--------------------------------------------|---------------------------------------|
|--------------------------------------------|---------------------------------------|

|-19-18---19-18--------18----------------------|
|-P----22-P----22-19-22---22-19-18-19-22-19-18-|
|-----------------P----------------------------|
|----------------------------------------------|
|----------------------------------------------|
|----------------------------------------------|
|----------------------------------------------|


|-14---|-17-14---------14-17-14----------------------14-17-14------14-|
|------|-P-----15---15---P----15-----------------15---P-----15---15---|
|------|---------14-------------14-------------14-------------14------|
|------|--------------------------16----------16----------------------|
|------|-----------------------------17-12-17-------------------------|
|------|--------------------------------------------------------------|
|------|--------------------------------------------------------------|

|-16-14-------14-17-14-------14-19-14-------14-17-14--------14-|
|-P----15---15----P---15---15----P---15---15--------15----15---|
|---------14-------------14-------------14-------------14------|
|--------------------------------------------------------------|
|--------------------------------------------------------------|
|--------------------------------------------------------------|
|--------------------------------------------------------------|

|-17-14-------14-17-14-------14-17-14-------14-17-14--------14-|
|-P----15---15----P---15---15----P---15---15--------15----15---|
|---------14-------------14-------------14-------------14------|
|--------------------------------------------------------------|
|--------------------------------------------------------------|
|--------------------------------------------------------------|
|--------------------------------------------------------------|

|-16-14-------14-17-14-------14-19-14-------14-17-14--------14-|
|-P----15---15----P---15---15----P---15---15--------15----15---|
|---------14-------------14-------------14-------------14------|
|--------------------------------------------------------------|
|--------------------------------------------------------------|
|--------------------------------------------------------------|
|--------------------------------------------------------------|

|-18-15-------15-18-15-------15-18-15-------15/21-17--------18-|
|-P----17---17----P---17---17----P---17---17--------20----20---|
|---------15-------------15-------------15-------------18------|
|--------------------------------------------------------------|
|--------------------------------------------------------------|
|--------------------------------------------------------------|
|--------------------------------------------------------------|

|-21/18--15------------15--18/15--12----------12--11/12--9------------9--12/9--6---------6--|
|-P----------17-----17-----P---------14-----14----P---------11-----11--------------8----8---|
|---------------15-----------------------12---------------------9--------------------6------|
|-------------------------------------------------------------------------------------------|
|-------------------------------------------------------------------------------------------|
|-------------------------------------------------------------------------------------------|
|-------------------------------------------------------------------------------------------|

|-10-5-----------5/14-10-------------------10-/17-14------14-17-14------14--22-TRILL-|
|-P---7---------7---P---10---------------10-----P---15--15---P----15--15-------------|
|------7-------7----------11-----------11-------------14------------14---------------|
|-------7-----7-------------12-------12----------------------------------------------|
|--------9-5-9----------------12-9-12------------------------------------------------|
|----------P---------------------P---------------------------------------------------|
|------------------------------------------------------------------------------------|

ILL GET ROUND TO THE REST AT A LATER DATE
comments
We did not receive enough feedback on this tab! Please rate:
print report bad tab
1 2 3 4 5
2 comments total.
0 reply
TrustMeWhenISay wrote on June 17 2009, 12:06 pm

nice job? all you did was copy out of the jeff loomis excercise book....

0 reply
DimebagZappa wrote on August 5 2009, 04:12 am

Yes, but at least those who cannot afford 12.99 (cdn) can use uh part of the song.......
Lame. Just like the booklet was. Lame.

I want to post or [tab]
guest
You may want to rate the tab now too:
select rating
Please do not post tabs as comments. Select "correction" instead!