Oops, an error
Loading. Please wait.

Sacristy Tab

1,622 views 6 this week
1 commentread comment
1 2 3 4 5
excellent!
x 4
add to favorites
launch autoscroll
font size
0
reset
how to read this tab
guitar tuner
Tab Pro tools
  • play this tab
  • loop segment
  • change instrument
  • show fretboard
  • metronome
×
Best way to learn
"Sacristy"
Autoscroll
slow
fast
+/-
esc
set tempo
stop
Contributor
Difficulty
Tuning
advanced
D# G# C# F# A# D#
Sacristy Intro Solo
By the way, you don't have to have a 7-string to play any of this solo

b=bend
w=wammy bar manipulation

Eb--------------------------------------------------------------------]
Bb-19b-(21)-19-19b-(21)----19--17--16--17-(back-and-fourth)-----------]
Gb---------------------------------------------------------18----15---]
Db--------------------------------------------------------------------]
Ab--------------------------------------------------------------------]
Eb--------------------------------------------------------------------]
Bb--------------------------------------------------------------------]

-------16---19---18-18b-(19)-18---15-----------------------------------------]
----17--------------------------------17--------17-16-15-14--14--------------]
-16-------------------------------------18-15--------------17--15---------15-]
----------------------------------------------17-----------------17-14-17----]
-----------------------------------------------------------------------------]
-----------------------------------------------------------------------------]
-----------------------------------------------------------------------------]

------------------------------------------------------------------------------]
-19b-(21)-19-19b-(21)----19--17--16--17--16-17-16--16-17-19-17-19-17-16-16-17-]
-------------------------------------------------18---------------------------]
------------------------------------------------------------------------------]
------------------------------------------------------------------------------]
------------------------------------------------------------------------------]
------------------------------------------------------------------------------]

------------------------------------------16--19--16-19-19b-(20)-19-19b(20)-]
-16--16--------16-17-16----------------17-----------------------------------]
---18--18b-(20)--------18-----15w---16--------------------------------------]
----------------------------------------------------------------------------]
----------------------------------------------------------------------------]
----------------------------------------------------------------------------]
----------------------------------------------------------------------------]

-19-18-19-18b(19)-18-16-0w--11-12-14-12-14-12-11-12-11--12-----------]
------------------------------------------------------14--14b(16)-12-]
---------------------------------------------------------------------]
---------------------------------------------------------------------]
---------------------------------------------------------------------]
---------------------------------------------------------------------]
---------------------------------------------------------------------]

Use these arpeggios for the next part. The pattern would take forever to tab
-12-9-----------------9-12-----17-12--------------------12-17-----]
-----10-------------10--------------14----------------14----------]
-------9-----------9------------------14------------14------------]
--------11-------11---------------------14--------14--------------]
----------12-7-12-------------------------16-12-16----------------]
------------------------------------------------------------------]
------------------------------------------------------------------]

-21-17------------------------17-21-------24--23--24!----]
------17--------------------17---------------------------]
--------18----------------18-----------------------------]
----------19------------19-------------------------------]
------------19--------19---------------------------------]
--------------21-17-21-----------------------------------]
---------------------------------------------------------]
comments
print report bad tab
1 comment total.
0 reply
Karz1993 wrote on October 14 2012, 11:15 am

awesome tab

I want to post or [tab]
guest
You may want to rate the tab now too:
select rating
Please do not post tabs as comments. Select "correction" instead!