Oops, an error
Loading. Please wait.

Dramamine chords

466 views 12 this week
no commentswrite comment
1 2 3 4 5
x 3
add to favorites
×
Save as Personal and add changes to this tab that will be seen only by you. Learn more ›
×
You can save this tab as Personal to edit and correct it or add notes. All changes will be seen only by you. Learn more »
launch autoscroll
font size
0
reset
transpose
0
reset
simplify chords
display chords
guitar tuner
edit
Autoscroll
slow
fast
+/-
esc
set tempo
stop
Strumming
There is no strumming pattern for this song yet. and get +5 IQ
Jeff Rosenstock - Dramamine
Tuning: Standard
Chord Info:

   B/D# 
E|-------|
B|-------|
G|---8---|
D|---9---|
A|---6---|
E|-------|

[Verse 1]
     F             C
Dramamine bring me down
       Bb          F
When I bounce all around
       B/D#      Bb
I'm in need of a dream
       F             C        F
lLt me sleep, let me be, Dramamine


[Verse 2]
     F             C
Holy hell, it's no fun
      Bb           F
Wide awake, rising sun
           B/D#          Bb
Brightness burns, nature screams
       F             C        F
Let me sleep, let me be, Dramamine

[Bridge]
E|--------------|--------------------------|
B|--------------|--------------------------|
G|--10--12--14--|--14--12---9--10--12--14--|
D|--------------|--------------------------|
A|--8---10--12--|--12--10---7--8---10--12--|
E|--------------|--------------------------|

E|----------|-----------------|----------------|----------------|
B|----------|-----------------|----------------|----------------|
G|----------|-----------------|----------------|----------------|
D|--14--12--|--14--12---9--7--|--14--12--9--7--|--14--12--9--7--|
A|----------|-----------------|----------------|----------------|
E|--12--10--|--12--10---7--5--|--12--10--7--5--|--12--10--7--5--|

E|----------|----------|----------------------|---------------------|
B|----------|----------|----------------------|---------------------|
G|----------|----------|----------------------|---------------------|
D|--14--12--|--14--12--|--14--12--15--12--14--|--14--12--15--9--10--|
A|----------|----------|----------------------|---------------------|
E|--12--10--|--12--10--|--12--10--13--10--12--|--12--10--13--7--8---|

E|---------------------|----------|----------|
B|---------------------|----------|----------|
G|---------------------|----------|----------|
D|--14--12--15--9--10--|--14--12--|--14--12--|
A|---------------------|----------|----------|
E|--12--10--13--7--8---|--12--10--|--12--10--|

[Verse 3]
        F                C
Warping through time and space
       Bb          F
With a smile on my face
        B/D#            Bb
Loss of thought, pretty please
       F             C       F              Dm
Let me sleep, let me be, Dramamine ... Dramamine
       F             C       F
Let me sleep, let me be, Dramamine

            
            
Suggest correction
Creating personal tab
Creating personal tab
You can edit any tab online and save it as your Personal.

You can edit, replace or remove any tab part or add personal notes – all changes will be seen only by you.

Personal tabs can be accessed anytime from any device, even offline.
Learn more »
Give kudos to tab author, rate the tab!
1 2 3 4 5
comments
print report bad tab
guest
You may want to rate the tab now too:
select rating
Wanna post a correction for this tab? Suggest correction