Oops, an error
Loading. Please wait.

Growing Tab

412 views 1 this week
no commentswrite comment
1 2 3 4 5
2 more votes to show rating
add to favorites
launch autoscroll
font size
0
reset
how to read this tab
guitar tuner
Autoscroll
slow
fast
+/-
esc
set tempo
stop
Help us to improve Ultimate-Guitar.com Take our survey!
×
Author
Tuning
D A D G B E
some of the x#'s may be a couple off but i did try to actually count. enjoy :)

e|--------------------------------------------------|
B|--------------------------------------------------|
G|--------------------------------------------------|
D|-9------------------------------------------------|
A|-9--x33-------------------------------------------|
D|-9------------------------------------------------|
                                                     >x4
e|--------------------------------------------------|
B|--------------------------------------------------|
G|--------------------------------------------------|
D|-13-13-11-11-9-9----------------------------------|
A|--------------------------------------------------|
D|--------------------------------------------------|
on the last few strums of the first part^(can be played separate or incorporated. I will 
have it incorporated later in the tab)

e|--------------------------------------------------|
B|--------------------------------------------------|
G|--------------------------------------------------|
D|-3------4b--3-------4b----------------------------|
A|-3-x15--4b--3-x7----------------------------------|
D|-3------4b--3-------------------------------------|

e|--------------------------------------------------|
B|--------------------------------------------------|
G|--------------------------------------------------|
D|-9------7h9-9------3------4b---3------4b----------|
A|-9-x16--7h9-9-x5---3-x15--4b---3-x7---------------|
D|-9------7h9-9------3------4b---3------------------|

e|---------------------------|
B|---------------------------|
G|---------------------------|
D|-9-------------------------|
A|-9-x33---------------------|
D|-9-------------------------|

e|----------------------------------------|
B|----------------------------------------|
G|----------------------------------------|
D|---9------13-13-11-11-9-----------------| x2
A|---9-x26--9--9--9--9--9-----------------|
D|---9------9--9--9--9--9-----------------|



e|--------------------------------------------------|
B|--------------------------------------------------|
G|--------------------------------------------------|
D|-3------4b--3-------4b----------------------------|
A|-3-x15--4b--3-x7----------------------------------|
D|-3------4b--3-------------------------------------|

e|-----------------------------------------------------------------------------|
B|-----------------------------------------------------------------------------|
G|-----------------------------------------------------------------------------|
D|-9-9-9-9-9-11-12-----9-9-11-12---11-12--14-12-14-15-15-15-15-15-14-12-9---9--|
A|-9-9-9-9-9-11-12-x4--9-9-11-12---11-12--14-12-14-15-15-15-15-15-14-12-9---9--|
D|-9-9-9-9-9-11-12-----9-9-11-12---11-12--14-12-14-15-15-15-15-15-14-12-9---9--|

^then play this again quietly only on the E string(now tuned to D of course)


e|----------------------------------------|
B|----------------------------------------|
G|----------------------------------------|
D|---9------13-13-11-11-9-----------------| x3
A|---9-x26--9--9--9--9--9-----------------|
D|---9------9--9--9--9--9-----------------|


e|--------------------------------------------------|
B|--------------------------------------------------|
G|--------------------------------------------------|
D|-3------4b--3-------4b----------------------------|
A|-3-x15--4b--3-x7----------------------------------|
D|-3------4b--3-------------------------------------|

e|--------------------------------------------------|
B|--------------------------------------------------|
G|--------------------------------------------------|
D|-9------7h9-9-----3----2----1-----0---------------|
A|-9-x16--7h9-9-x5--3-x8-2-x8-1-x8--0---------------|
D|-9------7h9-9-----3----2----1-----0---------------|
Suggest correction
Give kudos to tab author, rate the tab!
1 2 3 4 5
comments
print report bad tab
guest
You may want to rate the tab now too:
select rating
Wanna post a correction for this tab? Suggest correction