Oops, an error
Loading. Please wait.

Red Like Roses Tab

version 1
version 1

Intro

Whole song

  • Easier to read because some notes were previously out of place.
20,528 views 63 this week
no commentswrite comment
1 2 3 4 5
x 12
add to favorites
launch autoscroll
font size
0
reset
how to read this tab
guitar tuner
×
Best way to learn
"Red Like Roses"
Autoscroll
slow
fast
+/-
esc
set tempo
stop
Author
Difficulty
novice
-------------------------------------------------------------------------------
                Red Like Roses - Jeff Williams feat. Casey Williams
-------------------------------------------------------------------------------
Tabbed by: Nick Gunderman
E-mail: nickrgunderman@gmail.com

Tuning: Standard

e|-------------------------14-12-------------------------------14-12-------|
B|-15--14--15--14--15--14--------15-14-15--14--15--14--15--14--------15-14-|
G|-------------------------------------------------------------------------|
D|-------------------------------------------------------------------------|
A|-------------------------------------------------------------------------|
E|-------------------------------------------------------------------------|

e|-------------------------14-12-------------------------------------|
B|-15--14--15--14--15--14--------15-14-15--14--12------12------------|
G|-------------------------------------------------14------14--------|
D|-------------------------------------------------------------------|
A|-------------------------------------------------------------------|
E|-------------------------------------------------------------------|

e|-------------------------14-12------------------------------|
B|-15--14--15--14--15--14--------15-14-15--14--15--14--15--14-|
G|------------------------------------------------------------|
D|------------------------------------------------------------|
A|------------------------------------------------------------|
E|------------------------------------------------------------|

e|----------12-14------------------------|
B|-12-14-15--------15--14--15--12--------|
G|---------------------------------------|
D|---------------------------------------|
A|---------------------------------------|
E|---------------------------------------|

e|----------12-14------------------------|
B|-12-14-15--------15--14--15------------|
G|-----------------------------14--------|
D|---------------------------------------|
A|---------------------------------------|
E|---------------------------------------|
Suggest correction
comments
print report bad tab
guest
You may want to rate the tab now too:
select rating
Wanna post a correction for this tab? Suggest correction