Oops, an error
Loading. Please wait.

This Will Be The Day tab

version 3
version 3

Whole song

Interactive

1,754 views 1 this week
no commentswrite comment
1 2 3 4 5
3 more votes to show rating
add to favorites
×
Save as Personal and add changes to this tab that will be seen only by you. Learn more ›
×
You can save this tab as Personal to edit and correct it or add notes. All changes will be seen only by you. Learn more »
launch autoscroll
font size
0
reset
how to read this tab
guitar tuner
edit
Autoscroll
slow
fast
+/-
esc
set tempo
stop
-------------------------------------------------------------------------------
                             This Will Be The Day - Jeff Williams
-------------------------------------------------------------------------------
Tabbed by: Michael Yu

Tuning: Drop D

This is the lead guitar part

 INTRO                               VERSE 1 
 *2 times          *4 times          *4 times          *4 times
e|-----------------|-----------------|-----------------|-----------------|
B|-----------------|-----------------|-----------------|-----------------|
G|----------------*|----------------*|----------------*|----------------*|
D|----------------*|----------------*|----------------*|----------------*|
A|-----------------|-0-0-0-3-2-0-2-3-|-----------------|-0-0-0-3-2-0-2-3-|
D|-----------------|-0-0-0-3-2-0-2-3-|-----------------|-0-0-0-3-2-0-2-3-|

e|-----------------|-----------------|-----------------|-----------------|
B|-----------------|-----------------|-----------------|-----------------|
G|-----------------|-----------------|-----------------|-----------------|
D|-2-----3---x-2---|---3---x-2-3-----|-2-----3-----3---|-----------------|
A|-1-----1---x-1---|---1---x-1-1-0-0-|-1-----1-----1---|-----3-----------|
D|-----------------|-----------------|-----------------|-2-3---2-3-2~~~~~|

 PRE-CHORUS
e|-----------------|-----------------|-----------------|-----------------|
B|-----------------|-----------------|-----------------|-----------------|
G|-----------------|-----------------|-----------------|-----------------|
D|-----------------|-----------------|-----------------|---------------8-|
A|-----------------|-----------------|-----------------|---------------5-|
D|-8---------------|-----------------|/7---------------|---------------5-|

e|-----------------|-----------------|-----------------|-----------------|
B|-----------------|-----------------|-----------------|-----------------|
G|-----------------|-----------------|-----------------|-----------------|
D|-----8-----8---8-|---8-8-8-------10|---1010--------5-|-------7---------|
A|---5-5---5-5---5-|---5-5-5-------7-|---7-7---------3-|-------4---------|
D|---5-5<5>--5-5-5-|---5-5-5-5-5-7-7-|---7-7-7-7-7-7---|-----------------|

 CHORUS
e|-----------------|-----------------|-----------------|-----------------|
B|-----------------|-----------------|-----------------|-----------------|
G|-----------------|-----------------|-----------------|---------------10|
D|-14--14----14--14|---1414----14----|-141414----14--14|---1414----14----|
A|-12--12----12--12|---1212----12----|-121212----12--12|---1212----12--8-|
D|-12--121212121212|---12121212121212|-1212121212121212|---1212121212----|

e|-----------------|-----------------|-----------------|-----------------|
B|-----------------|---10101010101010|-----10--10------|-----------------|
G|-1010101010101010|-1010101010101010|-1010101010101010|-109-9-9-9-1010--|
D|-----------------|-----------------|-----------------|-----------------|
A|-8-8-8-8-8-8-8-8-|-8-8-8-8-8-8-8-8-|-8-8-8-8-8-8-8-8-|-8-7-7-7-7-8-8---|
D|-----------------|-----------------|-----------------|---------------0-|

e|-----------------|-----------------|-----------------|-----------------|
B|-----------------|-----------------|-----------------|-----------------|
G|-----------------|-----------------|-----------------|---------------10|
D|-----14----14--14|---1414----14----|-141414----14--14|---1414141414148-|
A|-121212----12--12|---1212----12----|-121212----12--12|---1212121212128-|
D|-0-0-120-0-120-12|---12120-0-120-0-|-1212120-0-120-12|---121212121212--|

 *2 times          *
e|-----------------|-----------------|-----------------|-----------------|
B|-----------------|-----------------|-----------------|-----------------|
G|---1010101010109-|---9-9-9-9-9-9-10*---10101010101012|---12121212121210|
D|---8-8-8-8-8-8-7-|---7-7-7-7-7-7-8*|---8-8-8-8-8-8-10|---1010101010108-|
A|---8-8-8-8-8-8-7-|---7-7-7-7-7-7-8-|---8-8-8-8-8-8-10|---1010101010108-|
D|-----------------|-----------------|-----------------|-----------------|

e|-----------------|-----------------|-----------------|-----------------|
B|-----------------|-----------------|-----------------|-----------------|
G|---10109---9-9-10|---109-9---9-9---|-----------------|-----------------|
D|---8-8-7---7-7-8-|---8-7-7---7-7-12\\----------------|-----------------|
A|---8-8-7---7-7-8-|---8-7-7---7-7-12\\----------------|-----------------|
D|-----------------|---------------12\\----------------|-----------------|

                   VERSE 2
 *2 times          *2 times          *
e|-----------------|-----------------|-----------------|
B|-----------------|-----------------|-----------------|
G|----------------*|-----------------|----------------*|
D|----------------*|-------10----1012|-------109---1012*
A|-0-0-0-3-2-0-2-3-|-0-0-0-100-0-1012|-0-0-0-109-0-1012|
D|-0-0-0-3-2-0-2-3-|-0-0-0---0-0-----|-0-0-0-----0-----|

 *2 times          *                 *4 times
e|-----------------|-----------------|-----------------|-----------------|
B|-----------------|-----------------|-----------------|-----------------|
G|-----------------|----------------*|----------------*|-----------------|
D|-----------------|----------------*|----------------*|-2-----3---x-2---|
A|-8-8-8-7-7-7-8-8-|-8-7-7-7-8-8-7-7-|-0-0-0-3-2-0-2-3-|-1-----1---x-1---|
D|-8-8-8-8-8-8-8-8-|-8-8-8-8-8-8-8-8-|-0-0-0-3-2-0-2-3-|-----------------|

                                                       *3 times
e|-----------------|-----------------|-----------------|-----------------|
B|-----------------|-----------------|-----------------|-----------------|
G|-----------------|-----------------|-----------------|----------------*|
D|---3---x-2-3-----|-2-----3-----3---|-----------------|----------------*|
A|---1---x-1-1-0-0-|-1-----1-----1---|-----3-----------|-----------------|
D|-----------------|-----------------|-2-3---2-3-2~~~~~|-----------------|

e|-----------------|-----------------|-----------------|-----------------|
B|-----------------|-----------------|-----------------|-----------------|
G|-----------------|-----------------|-----------------|-----------------|
D|---------------8-|-----8-----8---8-|---8-8-8-------10|-1010----------5-|
A|---------------5-|---5-5---5-5---5-|---5-5-5-------7-|-7-7-----------3-|
D|---------------5-|---5-5<5>--5-5-5-|---5-5-5-5-5-7-7-|-7-7-7-7-7-7-7---|

e|-----------------|
B|-----------------|
G|-----------------|
D|-------7---------|
A|-------4---------|
D|-----------------|

 SOLO
e|-----------------|-----------------|-----------------|-----------------|
B|-----------------|-----------------|-----------------|-----------------|
G|-----------------|-----------------|-----------------|---------------10|
D|-14--14----14--14|---1414----14----|-141414----14--14|---1414----14----|
A|-12--12----12--12|---1212----12----|-121212----12--12|---1212----12--8-|
D|-12--121212121212|---12121212121212|-1212121212121212|---1212121212----|

e|-----------------|-----------------|-----------------|-----------------|
B|-----------------|---10101010101010|-----10--10------|-----------------|
G|-1010101010101010|-1010101010101010|-1010101010101010|-109-9-9-9-1010--|
D|-----------------|-----------------|-----------------|-----------------|
A|-8-8-8-8-8-8-8-8-|-8-8-8-8-8-8-8-8-|-8-8-8-8-8-8-8-8-|-8-7-7-7-7-8-8---|
D|-----------------|-----------------|-----------------|---------------0-|

e|-----------------|-----------------|-----------------|-----------------|
B|-----------------|-----------------|-----------------|-----------------|
G|-----------------|-----------------|-----------------|---------------10|
D|-----14----14--14|---1414----14----|-141414----14--14|---1414141414148-|
A|-121212----12--12|---1212----12----|-121212----12--12|---1212121212128-|
D|-0-0-120-0-120-12|---12120-0-120-0-|-1212120-0-120-12|---121212121212--|

 *2 times          *
e|-----------------|-----------------|-----------------|-----------------|
B|-----------------|-----------------|-----------------|-----------------|
G|---1010101010109-|---9-9-9-9-9-9-10*---10101010101012|---12121212121210|
D|---8-8-8-8-8-8-7-|---7-7-7-7-7-7-8*|---8-8-8-8-8-8-10|---1010101010108-|
A|---8-8-8-8-8-8-7-|---7-7-7-7-7-7-8-|---8-8-8-8-8-8-10|---1010101010108-|
D|-----------------|-----------------|-----------------|-----------------|

                                     BRIDGE
                                                       *3 times
e|-----------------|-----------------|-----------------|-----------------|
B|-----------------|-----------------|-----------------|-----------------|
G|---10109---9-9-10|---109-9---9-9---|-----------------|----------------*|
D|---8-8-7---7-7-8-|---8-7-7---7-7-12\\----------------|----------------*|
A|---8-8-7---7-7-8-|---8-7-7---7-7-12\\----------------|-----------------|
D|-----------------|---------------12\\----------------|-----------------|

 *2 times          *                 *                 *                 *
e|-----------------|-----------------|-----------------|-----------------|
B|-----------------|-----------------|-----------------|-----------------|
G|-----------------|-------9---------|-----------------|-----------------|
D|-7-8-7---7-----7-|---1010----------|-7-8-7---7-----7-|-----------7-7-x-|
A|-------10--1010--|-----------------|-------10----10--|---10--10--------|
D|-----------------|-----------------|-----------------|-----------------|

 *                 *                 *                 *               
e|-----------------|-----------------|-----------------|-----------------|
B|-----------------|-----------------|-----------------|-----------------|
G|-----------------|-------9---------|-----------------|----------------*|
D|-7-8-7---7-----7-|---10------------|-7-8-7---7-----7-|----------------*|
A|-------10--1010--|-----------------|-------10--1010--|---10--8---10----|
D|-----------------|-----------------|-----------------|-----------------|

e|-----------------|-----------------|-----------------|-----------------|
B|-----------------|-----------------|-----------------|-----------------|
G|-----------------|-----------------|-----------------|-------9---------|
D|-7-8-7---7-----7-|-----------7-----|-7-8-7-8-7-----7-|---10------------|
A|-------10----10--|---10--10--------|-----------108---|-----------------|
D|-----------------|-----------------|-----------------|-----------------|

 CHORUS
e|-----------------|-----------------|-----------------|-----------------|
B|-----------------|-----------------|-----------------|-----------------|
G|-----------------|-----------------|-----------------|---------------10|
D|-14--14----14--14|---1414----14----|-141414----14--14|---1414----14----|
A|-12--12----12--12|---1212----12----|-121212----12--12|---1212----12--8-|
D|-12--121212121212|---12121212121212|-1212121212121212|---1212121212----|

e|-----------------|-----------------|-----------------|-----------------|
B|-----------------|---10101010101010|-----10--10------|-----------------|
G|-1010101010101010|-1010101010101010|-1010101010101010|-109-9-9-9-1010--|
D|-----------------|-----------------|-----------------|-----------------|
A|-8-8-8-8-8-8-8-8-|-8-8-8-8-8-8-8-8-|-8-8-8-8-8-8-8-8-|-8-7-7-7-7-8-8---|
D|-----------------|-----------------|-----------------|---------------0-|

e|-----------------|-----------------|-----------------|-----------------|
B|-----------------|-----------------|-----------------|-----------------|
G|-----------------|-----------------|-----------------|---------------10|
D|-----14----14--14|---1414----14----|-141414----14--14|---1414141414148-|
A|-121212----12--12|---1212----12----|-121212----12--12|---1212121212128-|
D|-0-0-120-0-120-12|---12120-0-120-0-|-1212120-0-120-12|---121212121212--|

 *2 times          *
e|-----------------|-----------------|-----------------|-----------------|
B|-----------------|-----------------|-----------------|-----------------|
G|---1010101010109-|---9-9-9-9-9-9-10*---10101010101012|---12121212121210|
D|---8-8-8-8-8-8-7-|---7-7-7-7-7-7-8*|---8-8-8-8-8-8-10|---1010101010108-|
A|---8-8-8-8-8-8-7-|---7-7-7-7-7-7-8-|---8-8-8-8-8-8-10|---1010101010108-|
D|-----------------|-----------------|-----------------|-----------------|

e|-----------------|-----------------|-----------------|
B|-----------------|-----------------|-----------------|
G|---10109---9-9-10|---109-9---9-9---|-----------------|
D|---8-8-7---7-7-8-|---8-7-7---7-7-12\\----------------|
A|---8-8-7---7-7-8-|---8-7-7---7-7-12\\----------------|
D|-----------------|---------------12\\----------------|

************************************

| /   slide up
| \   slide down
| h   hammer-on
| p   pull-off
| ~   vibrato
| +   harmonic
| x   Mute note

************************************
Suggest correction
Creating personal tab
Creating personal tab
You can edit any tab online and save it as your Personal.

You can edit, replace or remove any tab part or add personal notes – all changes will be seen only by you.

Personal tabs can be accessed anytime from any device, even offline.
Learn more »
Give kudos to tab author, rate the tab!
1 2 3 4 5
comments
print report bad tab
guest
You may want to rate the tab now too:
select rating
Wanna post a correction for this tab? Suggest correction