Oops, an error
Loading. Please wait.

This Will Be The Day tab

version 4
version 4

Whole song

Interactive

2,142 views 21 this week
no commentswrite comment
1 2 3 4 5
x 4
add to favorites
×
Save as Personal and add changes to this tab that will be seen only by you. Learn more ›
×
You can save this tab as Personal to edit and correct it or add notes. All changes will be seen only by you. Learn more »
launch autoscroll
font size
0
reset
how to read this tab
guitar tuner
edit
Autoscroll
slow
fast
+/-
esc
set tempo
stop
P.M- Palm Mute
N.H- Natural Harmonics
b-Bend
r-release
/-slide
~-Vibrato


INTRO

   P.M.-----|
E|--------------------------|
B|--------------------------|
G|--------------------------|
D|--0--0--0--3--2--0--2--3--|x4
A|--0--0--0--3--2--0--2--3--|
D|--0--0--0--3--2--0--2--3--|

VERSE 1

“They see you as small and helpless, they see you as just a child”
   P.M.-----------------------|
E|----------------------------|
B|----------------------------|
G|----------------------------|
D|--0--0--0--0--0--0--0--0----|x4
A|----------------------------|
D|----------------------------|

“Surprise when they find out that a warrior will son run wild”
   P.M.-----------------------|
E|----------------------------|
B|----------------------------|
G|----------------------------|
D|----------------------------|x3
A|--1--1--1--1--1--1--1--1----|
D|----------------------------|


   P.M.-----------------------|
E|----------------------------|
B|----------------------------|
G|----------------------------|
D|----------------------------|
A|--1--1--1--1----------------|
D|----------------------------|

“Prepare for your greatest moments, prepare for your finest hour
   P.M.-----|
E|--------------------------|
B|--------------------------|
G|--------------------------|
D|--0--0--0--3--2--0--2--3--|x4
A|--0--0--0--3--2--0--2--3--|
D|--0--0--0--3--2--0--2--3--|

“The dream that you’ve always dreamed is 

E|----------------------------------------------------|
B|----------------------------------------------------|
G|----------------------------------------------------|
D|--2--2--2--3--x--x---2--2--2--3--x--x---2--2--3--x--|
A|--1--1--1--1--x--x---1--1--1--1--x--x---1--1--1--x--|
D|----------------------------------------------------|

suddenly about to flower”
                                          N.H-|
E|---------------------------------------------|
B|---------------------------------------------|
G|---------------------------------------------|
D|--2--2--2--3--x--x--2------------------------|
A|--1--1--1--1--x--x--1----------3--------(3)--|
D|-------------------------2--3-----2--3-------|



PRE CHORUS

“We are…”

E|--------------------------|
B|--------------------------|
G|--------------------------|
D|--------------------------|x2
A|--1--1--1--1--1--1--1--1--|
D|--------------------------|

“…Lightning”

E|--------------------------|
B|--------------------------|
G|--------------------------|
D|--------------------------|x2
A|--0--0--0--0--0--0--0--0--|
D|--------------------------|

“Straying from the thunder”
E|----------------------------------------------|
B|----------------------------------------------|
G|----------------------------------------------|
D|--5--5--x--8--x--8--x--8--x--8--x--x--8----8--|
A|--5--5--x--5--x--5--x--5--x--5--x--x--5----5--|
D|--5--5--x--5--x--5--x--5--x--5--x--x--5----5--|

“Miracles of…”
E|--------------------------------|
B|--------------------------------|
G|--------------------------------|
D|--10--10--10--10--10--10--x--x--|
A|--7---7---7---7---7---7---x--x--|
D|--7---7---7---7---7---7---x--x--|

“…Ancient wonder”
E|--------------------------|
B|--------------------------|
G|--------------------------|
D|--5--5--5--5--6--6--6--6--|
A|--3--3--3--3--4--4--4--4--|
D|--------------------------|



CHORUS

“This will be the day we’ve waited for, this will be the day we open up the…”
   P.M.-|
E|-----------|
B|-----------|
G|-----------|
D|--0--0--0--|x7
A|--0--0--0--|
D|--0--0--0--|

“…door”          “I don’t want to hear your absolution”

  P.M.-----|      P.M-------------|
E|--------------|-----------------|
B|--------------|-----------------|
G|--------------|-----------------|
D|--0--0--0--3--|--3--3--3--3-----|x3 (only second measure)
A|--0--0--0--1--|--1--1--1--1-----|
D|--0--0--0-----|-----------------|


“Hope you’re ready for a revolution”
---------|      P.M.-----------------|     P.M.------------------|
E|--------------|--------------|------------|----------------------|
B|--------------|--------------|------------|----------------------|
G|--------------|--------------|------------|----------------------|
D|--3--3--3--3--|--3--3--3--3--|--3--3---2--|--2--2--2--2--2--2----|
A|--1--1--1--3--|--3--3--3--3--|--3--3---0--|--0--0--0--0--0--0----|
D|-----------3--|--3--3--3--3--|--3--3------|----------------------|

“welcome to a world of new solutions, welcome to a world of bloody…”
   P.M.-|
E|-----------|
B|-----------|
G|-----------|
D|--0--0--0--|x7
A|--0--0--0--|
D|--0--0--0--|


“…evolution”
  P.M.-----|      P.M-------------|
E|--------------|-----------------|
B|--------------|-----------------|
G|--------------|-----------------|
D|--0--0--0--3--|--3--3--3--3-----|x3 (only second measure)
A|--0--0--0--1--|--1--1--1--1-----|
D|--0--0--0-----|-----------------|



“In time, your heart will open minds”
  P.M.---------------|     P.M.---------------|     P.M.---------------|     P.M.---------------------|
E|-------------|-----------|------------|-----------|------------|-----------|------------|------------|
B|-------------|-----------|------------|-----------|------------|-----------|------------|------------|
G|-------------|-----------|------------|-----------|------------|-----------|------------|------------|
D|--3--3--3--3-|-3--3----5-|-5--5--5--5-|-5--5----3-|-3--3--3--3-|-3--3----2-|-2--2--2--2-|-2--2----3--|
A|--1--1--1--1-|-1--1----3-|-3--3--3--3-|-3--3----1-|-1--1--1--1-|-1--1----0-|-0--0--0--0-|-0--0----1--|
D|-------------|-----------|------------|-----------|------------|-----------|------------|------------|

“And victory is in a simple soul”

  P.M.----------------|     P.M.---------------|    P.M.--|    P.M.--|    P.M.--|     P.M.----------|
E|-------------|-----------|------------|----------|------------------------------------------------|
B|-------------|-----------|------------|----------|------------------------------------------------|
G|-------------|-----------|------------|----------|------------------------------------------------|
D|--3--3--3--3-|-3--3----5-|-5--5--5--5-|-5--5----3|--3--3--2---2--2---3---3--3---5---5--5------7/--|
A|--1--1--1--1-|-1--1----3-|-3--3--3--3-|-3--3----1|--1--1--0---0--0---1---1--1---3---3--3------5/--|
D|-------------|-----------|------------|----------|------------------------------------------------|

POST CHORUS

   P.M.-----|
E|--------------------------|
B|--------------------------|
G|--------------------------|
D|--0--0--0--3--2--0--2--3--|x4
A|--0--0--0--3--2--0--2--3--|
D|--0--0--0--3--2--0--2--3--|

VERSE 2
“Your world needs a great defender, your worlds in the way of harm”
   P.M.-----------------------|
E|----------------------------|
B|----------------------------|
G|----------------------------|
D|--0--0--0--0--0--0--0--0----|x4
A|----------------------------|
D|----------------------------|

“You want a romantic life, a fairy tale that’s full of charm”
   P.M.-----------------------|
E|----------------------------|
B|----------------------------|
G|----------------------------|
D|----------------------------|x3
A|--1--1--1--1--1--1--1--1----|
D|----------------------------|


   P.M.-----------------------|
E|----------------------------|
B|----------------------------|
G|----------------------------|
D|----------------------------|
A|--1--1--1--1----------------|
D|----------------------------|

   

“Beware that the light is fading, beware as the dark returns”
P.M.-----|
E|--------------------------|
B|--------------------------|
G|--------------------------|
D|--0--0--0--3--2--0--2--3--|x4
A|--0--0--0--3--2--0--2--3--|
D|--0--0--0--3--2--0--2--3--|


“This world’s unforgiving, even brilliant lights…”
E|----------------------------------------------------|
B|----------------------------------------------------|
G|----------------------------------------------------|
D|--2--2--2--3--x--x---2--2--2--3--x--x---2--2--3--x--|
A|--1--1--1--1--x--x---1--1--1--1--x--x---1--1--1--x--|
D|----------------------------------------------------|

“…will cease to burn”
                                          N.H-|
E|---------------------------------------------|
B|---------------------------------------------|
G|---------------------------------------------|
D|--2--2--2--3--x--x--2------------------------|
A|--1--1--1--1--x--x--1----------3--------(3)--|
D|-------------------------2--3-----2--3-------|


“LEGENDS SCATTERED”
“Day and night will sever…”
E|----------------------------------------------|
B|----------------------------------------------|
G|----------------------------------------------|
D|--5--5--x--8--x--8--x--8--x--8--x--x--8----8--|
A|--5--5--x--5--x--5--x--5--x--5--x--x--5----5--|
D|--5--5--x--5--x--5--x--5--x--5--x--x--5----5--|

“…Hope and peace are…”
E|--------------------------------|
B|--------------------------------|
G|--------------------------------|
D|--10--10--10--10--10--10--x--x--|
A|--7---7---7---7---7---7---x--x--|
D|--7---7---7---7---7---7---x--x--|

“…lost for ever”
E|--------------------------|
B|--------------------------|
G|--------------------------|
D|--5--5--5--5--6--6--6--6--|
A|--3--3--3--3--4--4--4--4--|
D|--------------------------|

SOLO
e|-------------------------------------------|----------------------------|
B|-------------------------------------------|-10-11-10-11-10-------------|
G|----------------------------------9-10-12--|-----------------12-10-12/--|
D|--/12---------------------8-10-12----------|----------------------------|
A|-------------------8-10-12-----------------|----------------------------|
E|-----------10-12-14------------------------|----------------------------|


e|-------------------------------------------|----------------------------|
B|------13--15b--(15)~-----------------------|-10-11-10-11----------------|
G|--/14--------------------------------------|-------------/14-12-10-12b--|
D|-------------------------------------------|----------------------------|
A|-------------------------------------------|----------------------------|
E|-------------------------------------------|----------------------------|


e|---------------------------|---------------------------------|
B|---------------------------|----------13--13--13--13--13--13-|
G|-(12)b-12------------------|---------------------------------|
D|-------------15---14---14--|-(14)-----10--10--10--10--10--10-|
A|---------------------------|---------------------------------|
E|---------------------------|---------------------------------|

e|----------------------------------|--------------------------------|
B|--13------10---8-----10-----------|---------13--13--13--13--13--13-|
G|----------------------------------|--------------------------------|
D|--10-------7---5-----7------------|---------10--10--10--10--10--10-|
A|----------------------------------|--------------------------------|
E|----------------------------------|--------------------------------|

e|----------------------------------|---------------------------------------|
B|-15-------10---8------6-----------|-5---6-5-------------------------------|
G|------------------------------5-7-|----------5--5--7---5-5--7--9--7-5--7-5|
D|-12--------7---5------3-----------|---------------------------------------|
A|----------------------------------|---------------------------------------|
E|----------------------------------|---------------------------------------|

e|-------------------------------------------|------------------------------|
B|-------------------------------------------|------------------------------|
G|-(5)---------------------------------------|------------------------------|
D|----7--5-8-5--7--5-------------------------|------------------------------|
A|-------------------8--7--5---3--5--7--8--3-|-5-3-0---7b------------r------|
E|-------------------------------------------|-------5----------------7-----|

e|----------------------------------|---------------------------------------|
B|----------------------------------|---------------------------------------|
G|-------------------17---19-/-17---|--(17)---15------/17----15---14---15---|
D|----------------------------------|-------------19------------------------|
A|----------------------------------|---------------------------------------|
E|----------------------------------|---------------------------------------|

e|---------20b---|-(20)----r18--17--15--------------------------------------|
B|---------------|-----------------------18--17--18b------------------------|
G|-(15)----------|-----------------------------------------17--15--17-15-14-|
D|---------------|----------------------------------------------------------|
A|---------------|----------------------------------------------------------|
E|---------------|----------------------------------------------------------|

e|-------------12--13--12-----------|---------------------------------------|
B|-(14)---------------------13------|--15--------13-------------------------|
G|------------------------------10--|---------------12--14-----12----10-12--|
D|----------------------------------|---------------------------------------|
A|----------------------------------|---------------------------------------|
E|----------------------------------|---------------------------------------|

e|--------------------------------|----------------------------------------|
B|--------------------------6-6-5-|----------------------------------------|
G|-(12)----------10---------------|-7--5---7-5--7--5-----------------------|
D|--------------------------------|-------------------7--5----7-5-8--5-----|
A|--------------------------------|------------------------------------7-5-|
E|--------------------------------|----------------------------------------|

e|----------------------------------|---------------------------------------|
B|----------------------------------|---------------------------------------|
G|----------------------------------|---------------------------------------|
D|------------------5b-------r------|---------------------------------------|
A|-5--------5--7-8-------------8--5-|--(5)/---------------------------------|
E|-------10-------------------------|---------------------------------------|



POST SOLO/BRIDGE/BREAKDOWN

   P.M.-----------------------|
E|----------------------------|
B|----------------------------|
G|----------------------------|
D|--0--0--0--0--0--0--0--0----|x22
A|----------------------------|
D|----------------------------|

   P.M.-----------------------|
E|----------------------------|------------------------------|
B|----------------------------|-----------------------5------|
G|----------------------------|--------------------5---------|
D|--0--0--0--0--0--0--0--0----|--7-7--5-5-------7------------|
A|----------------------------|------------8-8---------------|
D|----------------------------|------------------------------|


CHORUS
“This will be the day we’ve waited for, this will be the day we open up the…”
   P.M.-|
E|-----------|
B|-----------|
G|-----------|
D|--0--0--0--|x7
A|--0--0--0--|
D|--0--0--0--|


“…door”          “I don’t want to hear your absolution”
 
 P.M.-----|      P.M-------------|
E|--------------|-----------------|
B|--------------|-----------------|
G|--------------|-----------------|
D|--0--0--0--3--|--3--3--3--3-----|x3 (only second measure)
A|--0--0--0--1--|--1--1--1--1-----|
D|--0--0--0-----|-----------------|



“Hope you’re ready for a revolution”

---------|      P.M.-----------------|     P.M.------------------|
E|--------------|--------------|------------|----------------------|
B|--------------|--------------|------------|----------------------|
G|--------------|--------------|------------|----------------------|
D|--3--3--3--3--|--3--3--3--3--|--3--3---2--|--2--2--2--2--2--2----|
A|--1--1--1--3--|--3--3--3--3--|--3--3---0--|--0--0--0--0--0--0----|
D|-----------3--|--3--3--3--3--|--3--3------|----------------------|


“welcome to a world of new solutions, welcome to a world of bloody…”
   P.M.-|
E|-----------|
B|-----------|
G|-----------|
D|--0--0--0--|x7
A|--0--0--0--|
D|--0--0--0--|


“…evolution”

  P.M.-----|      P.M-------------|
E|--------------|-----------------|
B|--------------|-----------------|
G|--------------|-----------------|
D|--0--0--0--3--|--3--3--3--3-----|x3 (only second measure)
A|--0--0--0--1--|--1--1--1--1-----|
D|--0--0--0-----|-----------------|

“In time, your heart will open minds”
  P.M.---------------|     P.M.---------------|     P.M.---------------|     P.M.---------------------|
E|-------------|-----------|------------|-----------|------------|-----------|------------|------------|
B|-------------|-----------|------------|-----------|------------|-----------|------------|------------|
G|-------------|-----------|------------|-----------|------------|-----------|------------|------------|
D|--3--3--3--3-|-3--3----5-|-5--5--5--5-|-5--5----3-|-3--3--3--3-|-3--3----2-|-2--2--2--2-|-2--2----3--|
A|--1--1--1--1-|-1--1----3-|-3--3--3--3-|-3--3----1-|-1--1--1--1-|-1--1----0-|-0--0--0--0-|-0--0----1--|
D|-------------|-----------|------------|-----------|------------|-----------|------------|------------|

“And victory is in a simple soul”

  P.M.----------------|     P.M.---------------|    P.M.--|    P.M.--|    P.M.--|     P.M.----------|
E|-------------|-----------|------------|----------|------------------------------------------------|
B|-------------|-----------|------------|----------|------------------------------------------------|
G|-------------|-----------|------------|----------|------------------------------------------------|
D|--3--3--3--3-|-3--3----5-|-5--5--5--5-|-5--5----3|--3--3--2---2--2---3---3--3---5---5--5------7/--|
A|--1--1--1--1-|-1--1----3-|-3--3--3--3-|-3--3----1|--1--1--0---0--0---1---1--1---3---3--3------5/--|
D|-------------|-----------|------------|----------|------------------------------------------------|
Suggest correction
Creating personal tab
Creating personal tab
You can edit any tab online and save it as your Personal.

You can edit, replace or remove any tab part or add personal notes – all changes will be seen only by you.

Personal tabs can be accessed anytime from any device, even offline.
Learn more »
comments
print report bad tab
guest
Wanna post a correction for this tab? Suggest correction