Oops, an error
Loading. Please wait.

Crown Of Creation Tab

6,482 views 12 this week
1 commentread comment
1 2 3 4 5
x 6
add to favorites
launch autoscroll
font size
0
reset
how to read this tab
guitar tuner
Autoscroll
slow
fast
+/-
esc
set tempo
stop
Help us to improve Ultimate-Guitar.com Take our survey!
×
Author
Difficulty
intermediate
Jefferson Airplane

"Crown Of Creation"

Chords Em BM F Em7 D


Solo 1
e-------------------------------------------------------|
b-17-17~--17-15---17^--17--17^r-15-17-15~----15-17--14~-|
g-----------------------------------------16------------|
d-------------------------------------------------------|
a-------------------------------------------------------|
E-------------------------------------------------------|
                   sweep\
e------------------------12-----------------------------------|
b----------------------12---15-15^~--15^-12-15-12~--12^r------|
g----12-14-14-14^~--14^----------------------------------12~~-|
d-14----------------------------------------------------------|
a-------------------------------------------------------------|
E-------------------------------------------------------------|

e-------------------------------|-------------------------------|
b-7h8-8^r--7--8p7-8p7--10-7-8---|-------------------------------|
g-----------------------------9-|-7-9^rp7---7h9-7---------------|
d-------------------------------|---------9--------9\7-5-7-7^r5-|
a-------------------------------|-------------------------------|
E-------------------------------|-------------------------------|


e---------------------|--------|-----------------------------------|
b---------------------|--------|--------8^-------------------------|
g---------------------|--------|-----7~----9-----------------------|
d-77-777-777-777-7777-|-repeat-|-7/9----------7-9\7---5-7--5--7--5-|
a---------------------|--------|-----------------------------------|
E---------------------|--------|-----------------------------------|


e--------------------|
b--------------------|
g----------------7---|
d--------5--7/9------|
a--7--7--------------|
E--0--0--------------|

Interlude 1:17


   E                 C        E        E               C
e-------|--------|--------|--------|--------|--------|--------|
b-------|--------|--------|--------|--------|--------|--------|
g-------|--------|--------|--------|--------|--------|--------|
d-------|--------|--------|--------|--------|--------|--------|
a-------|--------|--------|--------|--------|--------|--------|
E-------|--------|--------|--------|--------|--------|--------|
  LOYALTY
   BM
e--2-2-2-2-2-2--|
b--3-3-3-3-3-3--|
g--4-4-4-4-4-4--|
d--4-4-4-4-4-4--|
a--2-2-2-2-2-2--|
E--2-2-2-2-2-2--|
SOLO 2!

  Em
e---------------------------------|
b-------------------7-----------8-|
g-----7-9-7-9-9--9-----7--9-7-9---|
d-7/9----------------9------------|
a---------------------------------|
E---------------------------------|
   A
e-----------------------------------------------------|
b--10--10--10^r8--------------------------------------|
g----------------9-7--9-9-9--9-7---7--9^r-7-9-7---7-7-|
d--------------------------------9--------------9-----|
a-----------------------------------------------------|
E-----------------------------------------------------|

e---------------------------------------------------|
b-------------8-8--10^r-8-10-8---7-7----------------|
g-9^r-7-9-7--------------------9--------------------|
d-----------9---------------------------------------|
a---------------------------------------------------|
E---------------------------------------------------|

e-------------------------------------------------|
b-------------------------------------------------|
g-9^r-7---7--9-9---7~~~-----7--6~~~---------------|
d-------9------------------------------------7----|
a-------------------------------------------------|
E-------------------------------------------------|

e---------------------------------------------|
b---------------------------------------------|
g-----------------------7---------------------|
d-9-----7--5---4---7/9------------------------|
a---------------------------------------------|
E---------------------------------------------|
Suggest correction
comments
print report bad tab
1 comment total.
0 reply
hamett91 63 Aug 20, 2007 09:15 PM

Don't mayer.

guest
You may want to rate the tab now too:
select rating
Wanna post a correction for this tab? Suggest correction