Oops, an error
Loading. Please wait.

Its No Secret Bass Tab

version 2
version 2

Whole song

861 views 3 this week
no commentswrite comment
1 2 3 4 5
3 more votes to show rating
add to favorites
launch autoscroll
font size
0
reset
guitar tuner
Autoscroll
slow
fast
+/-
esc
set tempo
stop
Help us to improve Ultimate-Guitar.com Take our survey!
×
Author
Difficulty
-------------------------------------------------------------------------------
			          IT'S NO SECRET - Jefferson Airplane
-------------------------------------------------------------------------------

Tabbed By : Autumn Neil
e-mail: anx93@aol.com

Tuning: Standard

Intro (0:01 – 0:14)
G|-----------3-1-------------3-1---5-3--/7-5~|
D|333333333------1-333333333-----3-----------|
A|-------------------------------------------|
E|-------------------------------------------|

Verse Riff 1
G|--------------|   |--------------------------| |--------------|
D|--------------|   |--------------------------| |----5---------|
A|----5---------|x3 |----5-----------------3046| |6-66-60344-040|x2
E|6-66-60344-040|   |6-66-60344-04044-0406-----| |--------------|
  Pt. 1(hooks to         Pt. 2(hooks to Pt. 3)           Pt.3
        Pt. 2)            

Bridge (“As I get older…)
              Bridge Ending (Hooks to Verse Riff 2):
G|----------|       |-----------|
D|----------|       |-------4-6-|
A|6-666(x29)|       |1-3-4-6----|
E|----------|       |-----------|

Verse Riff 2
G|----5----------|         |------------------------------------|
D|6-66-60344-040-|         |----5-------------5-----------------|
A|---------------|x2 then: |6-66-60344-0406-66-60344-04044-04066|
E|---------------|         |------------------------------------|

Outro:
G|--------------|         |------------------|
D|----5---------|         |----5-------------|
A|6-66-60344-040|x4 then: |6-66-6034-444-4/6~|
E|--------------|         |------------------|

Song Order:
Intro
Verse Riff 1 x4
Verse Riff 1 Pt. 1 (x1), then Verse Riff 1 Pt. 2 (x1)
Bridge, then Bridge Ending 29th time 
Verse Riff 2
Outro

~ = Ring Out
/ = Slide Up
===============================================================================

Suggest correction
Give kudos to tab author, rate the tab!
1 2 3 4 5
comments
print report bad tab
guest
You may want to rate the tab now too:
select rating
Wanna post a correction for this tab? Suggest correction