Oops, an error
Loading. Please wait.

Other Side Of This Life ukulele

90 views 1 this week
no commentswrite comment
1 2 3 4 5
3 more votes to show rating
add to favorites
×
Save as Personal and add changes to this tab that will be seen only by you. Learn more ›
×
You can save this tab as Personal to edit and correct it or add notes. All changes will be seen only by you. Learn more »
launch autoscroll
font size
0
reset
transpose
0
reset
display chords
guitar tuner
edit
Autoscroll
slow
fast
+/-
esc
set tempo
stop
Strumming
There is no strumming pattern for this song yet. and get +5 IQ
Lead guitar solos in G Dorian.

G-----------------------------------------------4-5-5/70------------------|
D-5-5-5-503-3--------505---53-3------505---53-3---------------53-3--------|
A------------03-4-50------5----03-4-5-----5----0-----------34-----034-554-|
E------------------------3---------------3---------------3----------------|

G--5--5-------------------------------5-5------------|
D--------3--3--3---5-503-3-----------------3--3--3---|
A3---3-3-------------------34-54-54-3--3-3-----------|
E---------01-01--3--------------------------01-01--3-|

 |                                       (strum each chord once)
e|---------------------------------------------------------------|
B|----------------------------------------3~~~~--1~~~~~--8~~~~---|
G|----------------------------------------4~~~~--2~~~~~--9~~~~---|
D|----------------------------------------5~~~~--3~~~~~--10~~~---|
A|---------------------------------------------------------------|
E|---------------------------------------------------------------|
                                          G      F       C

0:19
   ^v^v^ v       (funk rhythm, listen to record for actual rhythm)
e|-x7x7x/555555--x7x7x777777--|
B|-x8x7x/666666--x8x8x788888--|
G|-x7x7x/555555--x7x7x777777--|
D|----------------------------|
A|----------------------------|
E|----------------------------| The guitar is just a lot of
                                transitions between these two chords- G and F



Verse:
    v^v^v ^
e|-------------------------------------------|
B|--x3x3x/1~~-x3x3x/1~~-x3x3x/1~~-x3x3x/1~~--|
G|--x4x4x/2~~-x4x4x/2~~-x4x4x/2~~-x4x4x/2~~--|
D|--x5x5x/3~~-x5x5x/3~~-x5x5x/3~~-x5x5x/3~~--|
A|-------------------------------------------|
E|-------------------------------------------|


Chorus:
These are the chords for the chorus in the order they are played. Listen to the
for rhythm, number of strums etc.
e|------------------------------------------------------|
B|--x8--------1--------------x3~~~~~~~~~~~~~~~~~~~~~----|
G|--x9--------2--------------x4~~~~~~~~~~~~~~~~~~~~~----|
D|--x10-------3--------------x5~~~~~~~~~~~~~~~~~~~~~----|
A|------------------------------------------------------|
E|------------------------------------------------------|
    That’s the other side of this life yeah I’ve been leadin

e|------------------------------------------------------|
B|--x8--------1--------------x3~~~~~~~~~~~~~-~~~~~~-----|
G|--x9--------2--------------x4~~~~~~~~~~~~~~~~~~-~-----|
D|--x10-------3--------------x5~~~~~~~~~~~~~~~~~~~~-----|
A|------------------------------------------------------|
E|------------------------------------------------------|
     That’s the other side of this life

Bridge:
(each chord strummed once)
e|--------------------------------------|
B|--3~~~~-1~~~~-8~~~--3~~~~-1~~~~-8~~~--|
G|--4~~~~-2~~~~-9~~~--4~~~~-2~~~~-9~~~--|
D|--5~~~~-3~~~~-10~~--5~~~~-3~~~~-10~~--|
A|--------------------------------------|
E|--------------------------------------|

Repeat Verse
Repeat Chorus
Solo in G Dorian.
Repeat Verse
Repeat Chorus

            
            
Suggest correction
Creating personal tab
Creating personal tab
You can edit any tab online and save it as your Personal.

You can edit, replace or remove any tab part or add personal notes – all changes will be seen only by you.

Personal tabs can be accessed anytime from any device, even offline.
Learn more »
Give kudos to tab author, rate the tab!
1 2 3 4 5
comments
print report bad tab
guest
Wanna post a correction for this tab? Suggest correction