Oops, an error
Loading. Please wait.

Plastic Fantastic Lover Tab

version 2
version 2

Whole song

Interactive

5,357 views 21 this week
no commentswrite comment
1 2 3 4 5
x 3
add to favorites
launch autoscroll
font size
0
reset
how to read this tab
guitar tuner
Autoscroll
slow
fast
+/-
esc
set tempo
stop
Help us to improve Ultimate-Guitar.com Take our survey!
×
Author
Difficulty
intermediate
Jefferson Airplane
Plastic Fantastic Lover
Surrealistic Pillow (1967)
Re-formatted with E7

Intro and verse riff: E7
      v^v^vv
e|----0x0x00--|
B|----5x5x55--|
G|----7x7x77--|
D|----6x6x66--|
A|----7x7x77--|
E|-00---------|
   ..

Jorma’s riff:
e|-------------12---|--------------12|-15b(17)bd-----12---|
B|-14b(15)-------12-|-15b------------|-----------------12-|
G|-14b(16)----------|------------14--|--------------------|
D|------------------|----------------|--------------------|
A|------------------|----------------|--------------------|
E|------------------|----------------|--------------------|

e|-------------------------------|------|
B|-------------------------------|------|
G|-14~~-14~~-14b(16)--(16)bd-p12-|------|
D|-------------------------------|-14~~-|
A|-------------------------------|------|
E|-------------------------------|------|

Verse:
E7
Her neon mouth with the blinking soft smile

E7
Is nothing but an electric sign

E7
You could say she has an individual style

E7
She’s part of a colorful time


Chorus:

Am                  D
Super-sealed lady, chrome-color clothes

Em                  D
You wear 'cause you have no other

Am            D
But I suppose no one knows

B
You're my plastic fantastic lover

Repeat Intro

Verse 2:

E7
Your rattlin' cough never shuts off

E7
Is nothin' but a used machine

E7
Your aluminum finish, slightly diminished

E7
Is the best I ever have seen


Chorus 2:

Am            D
Cosmetic baby plugged into me

Em             D
And never ever find another

Am             D
And I realize no one's wise

B
To my plastic fantastic lover

Solo:
e|-/12~~----|------12-----12-----12-----12-----12-|2x
B|-/12~~----|-12h14--12h14--12h14--12h14--12h14---|
G|----------|-------------------------------------|
D|----------|-------------------------------------|
A|----------|-------------------------------------|
E|----------|-------------------------------------|

e|-/12~~----|-------12----12-----12-----12-----12-|-------12-------------|
B|-/12~~----|-12h14--12h14--12h14--12h14--12h14---|-12h14----------12~~\-|
G|----------|-------------------------------------|----------------------|
D|----------|-------------------------------------|----------------------|
A|----------|-------------------------------------|----------------------|
E|----------|-------------------------------------|----------------------|

e|----------------------------|--------12--------------------------|
B|----------------------------|------------------------------------|
G|----14b(16)-14b(16)-14b(16)-|-14b(16)---14b(16)-14b(16)bd-12-----|
D|----------------------------|-------------------------------14~~-|
A|----------------------------|------------------------------------|
E|----------------------------|------------------------------------|


e|------------------|----------------|-----|
B|------------------|------3p0-------|-----|
G|----------------0-|--2/4------2-0--|-----|
D|-14~~-14\5~~--2---|----------------|-2---|
A|------------------|----------------|-----|
E|------------------|----------------|-----|

Verse 3:

C#m
The electrical dust is starting to rust

E7
Her trapezoid thermometer taste

E7
All the red tape is mechanical rape

E7
Of the TV program waste


Chorus 3:

Am                D
Data control and IBM

Em                   D
Science is mankind's brother

Am               D
But all I see is drainin' me

B
On my plastic fantastic lover

Outro:
e|-/12~~----|------12-----12-----12-----12-----12-|2x
B|-/12~~----|-12h14--12h14--12h14--12h14--12h14---|
G|----------|-------------------------------------|
D|----------|-------------------------------------|
A|----------|-------------------------------------|
E|----------|-------------------------------------|

e|--12-12-12-|
B|--12-12-12-|
G|-----------|
D|-----------|
A|-----------|
E|-----------|
Suggest correction
Give kudos to tab author, rate the tab!
1 2 3 4 5
comments
print report bad tab
guest
You may want to rate the tab now too:
select rating
Wanna post a correction for this tab? Suggest correction