Oops, an error
Loading. Please wait.

Plastic Fantastic Lover tab

version 3
version 3

Whole song

Interactive

264 views 1 this week
no commentswrite comment
1 2 3 4 5
2 more votes to show rating
add to favorites
×
Save as Personal and add changes to this tab that will be seen only by you. Learn more ›
×
You can save this tab as Personal to edit and correct it or add notes. All changes will be seen only by you. Learn more »
launch autoscroll
font size
0
reset
how to read this tab
guitar tuner
edit
Autoscroll
slow
fast
+/-
esc
set tempo
stop
Author
Difficulty
PLASTIC FANTASTIC LOVER

As recorded by Jefferson Airplane
(From the 1967 Album SURREALISTIC PILLOW)

Words and Music by Marty Balin

Transcribed by Slowhand


Gtr I (E A D G B E) - 'Marty Balin - Acoustic Guitar'
Gtr II (E A D G B E) - 'Jorma Kaukonen - Electric Guitar'


 Intro
  Q=104
  E7
 4/4
  Gtr I (Ac. Gtr.)
  Q  Q  S E. E E   E E E S S S E. E E
|----------------|--------------------|
|----5----5--5---|-----5-x-x---5--5---|
|----7----7--7---|-----7-x-x---7--7---|
|----6----6--6---|-----6-x-x---6--6---|
|----7--7-7--7---|-----7-x-x-7-7--7---|
|-0------------0-|-0-0--------------0-|


  E E E S S S E. E E   E E E S S S E. E E
|--------------------|---------------------|
|-----5-x-x---5--5---|-----5-x-x---5--5----|
|-----7-x-x---7--7---|-----7-x-x---7--7----|
|-----6-x-x---6--6---|-----6-x-x---6--6----|
|-----7-x-x-7-7--7---|-----7-x-x-7-7--7----|
|-0-0--------------0-|-0-0--------------0--|


  E E E S S S E. E E   E E E S S S E. E E
|--------------------|--------------------|
|-----5-x-x---5--5---|-----5-x-x---5--5---|
|-----7-x-x---7--7---|-----7-x-x---7--7---|
|-----6-x-x---6--6---|-----6-x-x---6--6---|
|-----7-x-x-7-7--7---|-----7-x-x-7-7--7---|
|-0-0--------------0-|-0-0--------------0-|
|
| Gtr II (El. Gtr. w/ light dist.)
| W                    W
|--------------------|--------------------|
|--------------------|--------------------|
|--------------------|--------------------|
|--------------------|--------------------|
|--------------------|--------------------|
|--------------------|--------------------|


   E     E E S S   S   E.      E        E    E     E E S S   S   E.     E  E
|-----------------------------------------|--------------------------------------|
|----------5-x-x-------5-------5----------|----------5-x-x-------5------5--------|
|----------7-x-x-------7-------7----------|----------7-x-x-------7------7--------|
|----------6-x-x-------6-------6----------|----------6-x-x-------6------6--------|
|----------7-x-x---7---7-------7----------|----------7-x-x---7---7------7--------|
|--0-----0------------------------------0-|--0-----0-----------------------0-----|
|
|  H              +E       E  +S   E.        H              +E       E  E  E
|-12-------------(12)-----12-(12)---------|-------------------------12-12-15b17==|
|-12-------------(12)-------------15b17---|-15b17==========(15)r-----------------|
|-14b16==========(14)r--------------------|--------------------------------------|
|-----------------------------------------|--------------------------------------|
|-----------------------------------------|--------------------------------------|
|-----------------------------------------|--------------------------------------|


    E   E E  S S   S  E.    E  E       E    E E  S     S   S   E.          E      E
|-----------------------------------|-----------------------------------------------||
|---------5--x-x------5-----5-------|---------5--x-----x-------5-----------5--------||
|---------7--x-x------7-----7-------|---------7--x-----x-------7-----------7--------||
|---------6--x-x------6-----6-------|---------6--x-----x-------6-----------6--------||
|---------7--x-x---7--7-----7-------|---------7--x-----x---7---7-----------7--------||
|---0---0----------------------0----|--0----0-------------------------------------0-||
|
|                                      ~~~~~~~~~~~~~~~~~~~~~~~~
|  +E   Q    E    +E      Q    E       Q.        E        +E       E      +S   S  E
|-(15)-15r==15---(15)----12---------|-----------------------------------------------||
|-----------------------------------|-----------------------------------------------||
|-----------------------------14b16-|-14b16-----14b16====(14)r----14pb16r(14)p12----||
|-----------------------------------|--------------------------------------------14-||
|-----------------------------------|-----------------------------------------------||
|-----------------------------------|-----------------------------------------------||


 1st Verse
  E7
   E E E S S   S  E. E  E    E E E S S   S  E. E  E
|-------------------------|-------------------------|
|------5-x-x------5--5----|------5-x-x------5--5----|
|------7-x-x------7--7----|------7-x-x------7--7----|
|------6-x-x------6--6----|------6-x-x------6--6----|
|------7-x-x---7--7--7----|------7-x-x---7--7--7----|
|--0-0------------------0-|--0-0------------------0-|
|
|  H          +Q.       E    H          +Q.       E
|-------------------------|-------------------------|
|-------------------------|-------------------------|
|-------------------------|-------------------------|
|-14---------(14)------12-|-14---------(14)------12-|
|-------------------------|-------------------------|
|-------------------------|-------------------------|


   E E E S S   S  E. E  E    E  E E S S S E.  E  E
|-------------------------|------------------------|
|------5-x-x------5--5----|-------5-x-x---5---5----|
|------7-x-x------7--7----|-------7-x-x---7---7----|
|------6-x-x------6--6----|-------6-x-x---6---6----|
|------7-x-x---7--7--7----|-------7-x-x-7-7---7----|
|--0-0------------------0-|--0--0----------------0-|
|
|  H          +Q.       E    H.               E  E
|-------------------------|------------------------|
|-------------------------|------------------------|
|-------------------------|---------------------12-|
|-14---------(14)------12-|-14---------------14----|
|-------------------------|------------------------|
|-------------------------|------------------------|


   E    E  E      S  S  S E.    E  E         E    E   E   S      S   S   E.     E  E
|----------------------------------------|--------------------------------------------|
|----------5------x--x----5-----5--------|------------5---x------x-------5------5-----|
|----------7------x--x----7-----7--------|------------7---x------x-------7------7-----|
|----------6------x--x----6-----6--------|------------6---x------x-------6------6-----|
|----------7------x--x--7-7-----7--------|------------7---x------x---7---7------7-----|
|--0----0--------------------------0-----|---0----0--------------------------------0--|
|
|  Q       E     +E     E     e E  E        +E    E  +E   E         +S   S   E  E  E
|----------------------------------------|-------12-(12)------------------------------|
|-12-------------------------12----------|---------------15b15.5---(15)-12------------|
|-14b16---14b16r(14)---------12---14b16==|=(14)r----------------------------14-12-----|
|----------------------14----------------|----------------------------------------14--|
|----------------------------------------|--------------------------------------------|
|----------------------------------------|--------------------------------------------|


  Am
   Q  E E   E  E E  E    E  E E E E E  E  E
|---------------------|---------------------|
|--1--1---------------|-------1---1-1-------|
|--2--2-----2--2----0-|-------2---2-2-----0-|
|--2--2-----2--2----0-|-------2---2-2-----0-|
|--0--0-0---0--0-0----|--0--0---0-0-0--0----|
|---------------------|---------------------|
|
|  H       +Q.      E    H.            E  E
|---------------------|---------------------|
|---------------------|---------------------|
|---------------------|---------------------|
|-14------(14)-----12-|-14------------14-12-|
|---------------------|---------------------|
|---------------------|---------------------|


                         B
   E E E E   E  E E  E    E  E  E  E  E  E  E  E
|----------------------|--------------------------|
|------1-----1--1------|--4--4--4--4--4--4--4--4--|
|------2-----2--2----0-|--4--4--4--4--4--4--4--4--|
|------2-----2--2----0-|--4--4--4--4--4--4--4--4--|
|--0-0---0---0--0-0----|--2--2--2--2--2--2--2--2--|
|----------------------|--------------------------|
|
|  H        +Q.      E    E  E  E  E  E  E  E  E
|----------------------|--------------------------|
|----------------------|--------------------------|
|----------------------|--------------------------|
|-14-------(14)--------|-------13-13-------13-13--|
|-------------------12-|-14-14-14-14-14-14-14-14--|
|----------------------|--------------------------|


  E7
  Q  Q  S E. E E   E E E S S S E. E E
|----------------|--------------------|
|----5----5--5---|-----5-x-x---5--5---|
|----7----7--7---|-----7-x-x---7--7---|
|----6----6--6---|-----6-x-x---6--6---|
|----7--7-7--7---|-----7-x-x-7-7--7---|
|-0------------0-|-0-0--------------0-|


  E E E S S S E. E E   E E E S S S E. E E
|--------------------|--------------------|
|-----5-x-x---5--5---|-----5-x-x---5--5---|
|-----7-x-x---7--7---|-----7-x-x---7--7---|
|-----6-x-x---6--6---|-----6-x-x---6--6---|
|-----7-x-x-7-7--7---|-----7-x-x-7-7--7---|
|-0-0--------------0-|-0-0--------------0-|


   E     E E S S   S   E.      E        E    E     E E S S   S   E.     E  E
|-----------------------------------------|--------------------------------------|
|----------5-x-x-------5-------5----------|----------5-x-x-------5------5--------|
|----------7-x-x-------7-------7----------|----------7-x-x-------7------7--------|
|----------6-x-x-------6-------6----------|----------6-x-x-------6------6--------|
|----------7-x-x---7---7-------7----------|----------7-x-x---7---7------7--------|
|--0-----0------------------------------0-|--0-----0-----------------------0-----|
|
| Gtr II
|  H              +E       E  +S   E.        H              +E       E  E  E
|-12-------------(12)-----12-(12)---------|-------------------------12-12-15b17==|
|-12-------------(12)-------------15b17---|-15b17==========(15)r-----------------|
|-14b16==========(14)r--------------------|--------------------------------------|
|-----------------------------------------|--------------------------------------|
|-----------------------------------------|--------------------------------------|
|-----------------------------------------|--------------------------------------|


    E   E E  S S   S  E.    E  E       E    E E  S     S   S   E.          E      E
|-----------------------------------|-----------------------------------------------||
|---------5--x-x------5-----5-------|---------5--x-----x-------5-----------5--------||
|---------7--x-x------7-----7-------|---------7--x-----x-------7-----------7--------||
|---------6--x-x------6-----6-------|---------6--x-----x-------6-----------6--------||
|---------7--x-x---7--7-----7-------|---------7--x-----x---7---7-----------7--------||
|---0---0----------------------0----|--0----0-------------------------------------0-||
|
|                                      ~~~~~~~~~~~~~~~~~~~~~~~~
|  +E   Q    E    +E      Q    E       Q.        E        +E       E      +S   S  E
|-(15)-15r==15---(15)----12---------|-----------------------------------------------||
|-----------------------------------|-----------------------------------------------||
|-----------------------------14b16-|-14b16-----14b16====(14)r----14pb16r(14)p12----||
|-----------------------------------|--------------------------------------------14-||
|-----------------------------------|-----------------------------------------------||
|-----------------------------------|-----------------------------------------------||


 2nd Verse
  E7
   E E E S S S E. E  E    E E E S S S E. E  E
|----------------------|----------------------|
|------5-x-x---5--5----|------5-x-x---5--5----|
|------7-x-x---7--7----|------7-x-x---7--7----|
|------6-x-x---6--6----|------6-x-x---6--6----|
|------7-x-x-7-7--7----|------7-x-x-7-7--7----|
|--0-0---------------0-|--0-0---------------0-|
|
|  E E Q     Q    E  E    E E Q     Q    E  E
|----------------------|----------------------|
|----------------------|----------------------|
|----------------------|----------------------|
|-14----------------12-|-14----------------12-|
|----------------------|----------------------|
|----------------------|----------------------|


   E E E S S S E. E  E    E  E E S S S E.  E  E
|----------------------|-------------------------|
|------5-x-x---5--5----|-------5-x-x---5---5-----|
|------7-x-x---7--7----|-------7-x-x---7---7-----|
|------6-x-x---6--6----|-------6-x-x---6---6-----|
|------7-x-x-7-7--7----|-------7-x-x-7-7---7-----|
|--0-0---------------0-|--0--0----------------0--|
|
|  E E Q     Q    E  E    H.               E  E
|----------------------|-------------------------|
|----------------------|-------------------------|
|----------------------|---------------------12--|
|-14----------------12-|-14---------------14-----|
|----------------------|-------------------------|
|----------------------|-------------------------|


    E  E E S S  S  E.   E E    E  E E S S  S  E.   E E
|---------------------------|--------------------------|
|--------5-x-x-----5----5---|-------5-x-x-----5----5---|
|--------7-x-x-----7----7---|-------7-x-x-----7----7---|
|--------6-x-x-----6----6---|-------6-x-x-----6----6---|
|--------7-x-x--7--7----7---|-------7-x-x--7--7----7---|
|---0--0------------------0-|--0--0------------------0-|
|
| a Q.     E   +E     Q   E   +E  Q   E   +S  S  E E E
|---------------------------|--------------------------|
|---------------------------|--------------------------|
|-2s4------2---(2)----0-----|-----0---2---(2)-0----0-1-|
|-------------------------2-|-(2)----------------2-----|
|---------------------------|--------------------------|
|---------------------------|--------------------------|


  Am
  Q   E E E E  E  E   E  E E E E E  E  E
|-------------------|--------------------|
|-1---1-------------|------1---1-1-------|
|-2---2---2-2-----0-|------2---2-2-----0-|
|-2---2---2-2-----0-|------2---2-2-----0-|
|-0---0-0-0-0--0----|-0--0---0-0-0--0----|
|-------------------|--------------------|
|
| H.          +E  E   H.           +E  E
|-------------------|--------------------|
|-------------------|--------------------|
|-2-----------(2)-0-|-2------------(2)-0-|
|-------------------|--------------------|
|-------------------|--------------------|
|-------------------|--------------------|


                                         Interlude
                       B                     N.C.
  E  E E E E E  E  E   E E E E E E E E        E  E E E E E E E
|--------------------|-----------------||----------------------|
|------1---1-1-------|-4-4-4-4-4-4-4-4-||----------------------|
|------2---2-2-----0-|-4-4-4-4-4-4-4-4-||----------------------|
|------2---2-2-----0-|-4-4-4-4-4-4-4-4-||-----8--8-8-8-8-8-8-8-|
|-0--0---0-0-0--0----|-2-2-2-2-2-2-2-2-||----------------------|
|--------------------|-----------------||-----6--6-6-6-6-6-6-6-|
|
| H.           +E  E   E E E E E E E E     a  H.           Q
|--------------------|-----------------||-10s12----------------|
|--------------------|-----4-4-4-4-4---||-10S12----------------|
|-2------------(2)-2-|-4-4-4-4-4-4-4---||----------------------|
|--------------------|-----------------||----------------------|
|--------------------|-----------------||----------------------|
|--------------------|-----------------||----------------------|


   E     E     E     E    +E      E     E     E       E  E E E E E E E
|-----------------------------------------------|----------------------|
|-----------------------------------------------|----------------------|
|-----------------------------------------------|----------------------|
|--7-----5--------------------------------------|-----8--8-8-8-8-8-8-8-|
|--------------7-----5----(5)-----------------5-|----------------------|
|---------------------------------5-----7-------|-----6--6-6-6-6-6-6-6-|
|
|  S  S  S  S  S  S  S  S  S   S  S  S  S  S  E    a  H.           Q
|-------10-------10-------10--------10-------10-|-10s12----------------|
|-10h12----10h12----10h12-----10h12----10h12----|-10S12----------------|
|-----------------------------------------------|----------------------|
|-----------------------------------------------|----------------------|
|-----------------------------------------------|----------------------|
|-----------------------------------------------|----------------------|


   E     E     E     E    +E      E     E     E       E  E E E E E E E
|-----------------------------------------------|----------------------|
|-----------------------------------------------|----------------------|
|-----------------------------------------------|----------------------|
|--7-----5--------------------------------------|-----8--8-8-8-8-8-8-8-|
|--------------7-----5----(5)-----------------5-|----------------------|
|---------------------------------5-----7-------|-----6--6-6-6-6-6-6-6-|
|
|  S  S  S  S  S  S  S  S  S   S  S  S  S  S  E    a  H.           Q
|-------10-------10-------10--------10-------10-|-10s12----------------|
|-10h12----10h12----10h12-----10h12----10h12----|-10S12----------------|
|-----------------------------------------------|----------------------|
|-----------------------------------------------|----------------------|
|-----------------------------------------------|----------------------|
|-----------------------------------------------|----------------------|


   E     E     Q           E     E     E     E
|-------------------------------------------------|
|-------------------------------------------------|
|-------------------------------------------------|
|--7-----5-----------------------5----------------|
|--------------7-----------7-----------7-----5----|
|-------------------------------------------------|
|
|  S  S  S  S  S  S  S  S  S  S  S  S  S  S  S  S
|-------10-------10-------10-------10-------10----|
|-10h12----10h12----10h12----10h12----10h12----10h|
|-------------------------------------------------|
|-------------------------------------------------|
|-------------------------------------------------|
|-------------------------------------------------|


                          E7
   E  E  E E   H          E E E S    S  S   E.  E   E
|-----------------------|----------------------------------|
|-----------------------|-----5-x----x------5---5----------|
|-----------------------|-----7-x----x------7---7----------|
|-----------------------|-----6-x----x------6---6----------|
|--7--5--7-5---7--------|-----7-x----x--7---7---7----------|
|-----------------------|-0-0-----------------------0------|
|
|                               ~~~~~~~~~~~~~~~~~~~~~~~~~~~
|  E  Q.      +E   Q.     Q   E E      +S   E.  E.    S
|----10------(10)-------|-------5b7====(5)r-5b7-5b7---5b7==|
|-12--------------12----|----------------------------------|
|-----------------------|----------------------------------|
|-----------------------|----------------------------------|
|-----------------------|----------------------------------|
|-----------------------|----------------------------------|


   E   E E     S  S  S  E.   E E    E  E E   S S  S  E.   E E
|--------------------------------|----------------------------|
|--------5-----x--x-----5----5---|-------5---x-x-----5----5---|
|--------7-----x--x-----7----7---|-------7---x-x-----7----7---|
|--------6-----x--x-----6----6---|-------6---x-x-----6----6---|
|--------7-----x--x--7--7----7---|-------7---x-x--7--7----7---|
|--0---0-----------------------0-|--0--0--------------------0-|
|
|  ~~~~                        ~~~~~~~~
| +E   E E    +E    +E     Q   E   +Q.     a E   +E     Q   E
|-(5)r-0-5b6==(5)r==(5)----0-----|----------------------------|
|------------------------------3-|-(3)------------------------|
|--------------------------------|---------4s2---(2)----0-----|
|--------------------------------|--------------------------2-|
|--------------------------------|----------------------------|
|--------------------------------|----------------------------|


                                 3rd Verse
                                  E7
   E  E E   S S  S  E.     E E    E E E S S S  E.   E E
|------------------------------||--------------------------|
|-------5---x-x-----5------5---||-----5-x-x----5----5------|
|-------7---x-x-----7------7---||-----7-x-x----7----7------|
|-------6---x-x-----6------6---||-----6-x-x----6----6------|
|-------7---x-x--7--7------7---||-----7-x-x-7--7----7------|
|--0--0----------------------0-||-0-0-----------------0----|
|
| +E  Q   a E   +S  S  E a E E    q   E E   E.    S E E
|------------------------------||--------------------------|
|-------------------3----------||--------------------------|
|-----0---2s4---(4)----4-4s2-0-||-----------0--------------|
|-(2)--------------------------||-2-----2---------2---0----|
|------------------------------||--------------------------|
|------------------------------||--------------------------|


  E E E S S S E.   E E   E E E S S S  E.   E E
|----------------------|-----------------------|
|-----5-x-x---5----5---|-----5-x-x----5----5---|
|-----7-x-x---7----7---|-----7-x-x----7----7---|
|-----6-x-x---6----6---|-----6-x-x----6----6---|
|-----7-x-x-7-7----7---|-----7-x-x-7--7----7---|
|-0-0----------------0-|-0-0-----------------0-|
|
| Q   E E   E    E E E   q   E E   E.    S E E
|----------------------|-----------------------|
|----------------------|-----------------------|
|----------------0-2-0-|-----------0-----------|
|-2-----0---2----------|-2-----2---------2---0-|
|----------------------|-----------------------|
|----------------------|-----------------------|


  E E E S S S  E.    E  E     E  E E S S  S  E.   E E
|-------------------------|----------------------------|
|-----5-x-x----5-----5----|--------5-x-x-----5----5----|
|-----7-x-x----7-----7----|--------7-x-x-----7----7----|
|-----6-x-x----6-----6----|--------6-x-x-----6----6----|
|-----7-x-x-7--7-----7----|--------7-x-x--7--7----7----|
|-0-0-------------------0-|---0--0------------------0--|
|
| Q   E E   E.    S +E  E   a Q.     E   +E     Q   E
|-------------------------|----------------------------|
|-------------------------|----------------------------|
|-----------0-----2-(2)---|-2s4------2---(2)----0------|
|-2-----2-----------------|-------------------------2--|
|-------------------------|----------------------------|
|-------------------------|----------------------------|


                               Am
   E  E  E  S S  S  E.   E E   Q   E E E E  E  E
|----------------------------|-------------------|
|--------5--x-x-----5----5---|-1---1-------------|
|--------7--x-x-----7----7---|-2---2---2-2-----0-|
|--------6--x-x-----6----6---|-2---2---2-2-----0-|
|--------7--x-x--7--7----7---|-0---0-0-0-0--0----|
|--0--0--------------------0-|-------------------|
|
| +E  E +E  E   +S  S  E E E   H.          +E  E
|----------------------------|-------------------|
|----------------------------|-------------------|
|-----0-(0)-2---(2)-0----0-1-|-2-----------(2)-0-|
|-(2)------------------2-----|-------------------|
|----------------------------|-------------------|
|----------------------------|-------------------|


  E  E E E E E  E  E   E  E E E E E  E  E
|--------------------|---------------------|
|------1---1-1-------|------1---1-1--------|
|------2---2-2-----0-|------2---2-2-----0--|
|------2---2-2-----0-|------2---2-2-----0--|
|-0--0---0-0-0--0----|-0--0---0-0-0--0-----|
|--------------------|---------------------|
|
| H.           +E  E   H.           +E  E
|--------------------|---------------------|
|--------------------|---------------------|
|-2------------(2)-0-|-2------------(2)-2--|
|--------------------|---------------------|
|--------------------|---------------------|
|--------------------|---------------------|


                    Outro
  B                  E7
  E E E E E E E E    E E         E      S S S E.     E E
|-----------------||-------------------------------------|
|-4-4-4-4-4-4-4-4-||-------------5------x-x---5------5---|
|-4-4-4-4-4-4-4-4-||-------------7------x-x---7------7---|
|-4-4-4-4-4-4-4-4-||-------------6------x-x---6------6---|
|-2-2-2-2-2-2-2-2-||-------------7------x-x-7-7------7---|
|-----------------||-0-0-------------------------------0-|
|
|                      |---3---|
| Q   E E E E E E    E S   +S  S S a E.     E    S S E E
|-----------------||-------------------------------------|
|-----------------||------------------------3------------|
|-4---4-4-4-4-4-4-||---2b4r(2)p0---2s4-----------2p0---0-|
|-----------------||-------------2-------------------2---|
|-----------------||-------------------------------------|
|-----------------||-------------------------------------|


  E  E    E  S    S  S   E.    E     E     E E  E S S   S E.   E  E
|--------------------------------------|-------------------------------|
|---------5--x----x------5-----5-------|--------5-x-x-----5----5-------|
|---------7--x----x------7-----7-------|--------7-x-x-----7----7-------|
|---------6--x----x------6-----6-------|--------6-x-x-----6----6-------|
|---------7--x----x--7---7-----7-------|--------7-x-x---7-7----7-------|
|-0--0-------------------------------0-|---0-0--------------------0----|
|
|                           ~~~~~~~~~
| E.   S +E  E      +E      E +S  E.     a E Q.       a E    E E  E
|--------------------------------------|-------------------------------|
|------------3b4====(3)r----3-(3)-3----|---------------------3-5s10----|
|------0-(0)-3b4====(3)r----3-(3)-3----|-4s2-0--------2s4--------------|
|-2------------------------------------|-------------------------------|
|--------------------------------------|-------------------------------|
|--------------------------------------|-------------------------------|


    E  E E  S    S  S    E.  E    E    E    E  E  S S  S E.     E  E
|-----------------------------------|------------------------------------|
|--------5--x----x-------5---5------|----------5--x-x----5------5--------|
|--------7--x----x-------7---7------|----------7--x-x----7------7--------|
|--------6--x----x-------6---6------|----------6--x-x----6------6--------|
|--------7--x----x--7----7---7------|----------7--x-x--7-7------7--------|
|---0--0--------------------------0-|--0----0----------------------0-----|
|
|                                      ~~~~~
|  +Q    E  E       Q        E    E    Q       E  E    E     E  E  E
|-----------------------------------|------------------------------------|
|-(10)------------------------------|------------------------------------|
|----------14b16---14b16----14b16---|-14b16---12------12-------12-14b16==|
|-----------------------------------|------------14---------14-----------|
|-----------------------------------|------------------------------------|
|-----------------------------------|------------------------------------|


    E    E     E  S S  S      E.    E     E
|--------------------------------------------*|
|--------------5--x-x---------5-----5--------*|
|--------------7--x-x---------7-----7--------*|
|--------------6--x-x---------6-----6--------*|
|--------------7--x-x--7------7-----7--------*|
|---0----0--------------------------------0--*|
|
|                                 ~~~~~~~~
|                      |-------3-------|
|  +E    E  a  E  E    Q          Q    Q
|-------12-------15---17pb18=====17---17r----*|
|----------15s17-----------------------------*|
|-(14)r--------------------------------------*|
|--------------------------------------------*|
|--------------------------------------------*|
|--------------------------------------------*|


Duration Legend
---------------
W - whole; H - half; Q - quarter; E - 8th; S - 16th; T - 32nd; X - 64th; a - acciaccatura
+ - note tied to previous; . - note dotted; .. - note double dotted
Uncapitalized letters represent notes that are staccato (1/2 duration)
Irregular groupings are notated above the duration line
Duration letters will always appear directly above the note/fret number it represents the
duration for.  Duration letters with no fret number below them represent rests.  Multi-
bar rests are notated in the form Wxn, where n is the number of bars to rest for.  Low
melody durations appear below the staff

Tablature Legend
----------------
 h   - hammer-on
 p   - pull-off
 b   - bend
 pb  - pre-bend
 r   - bend release (if no number after the r, then release immediately)
 /\  - slide into or out of (from/to "nowhere")
 s   - legato slide
 S   - shift slide
  - natural harmonic
[n]  - artificial harmonic
n(n) - tapped harmonic
 ~   - vibrato
 tr  - trill
 T   - tap
 TP  - trem. picking
 PM  - palm muting
\n/  - tremolo bar dip; n = amount to dip
 \n  - tremolo bar down
 n/  - tremolo bar up
/n\  - tremolo bar inverted dip
 =   - hold bend; also acts as connecting device for hammers/pulls
 <>  - volume swell (louder/softer)
 x   - on rhythm slash represents muted slash
 o   - on rhythm slash represents single note slash

Misc Legend
-----------
 |  - bar
||  - double bar
||o - repeat start
o|| - repeat end
*|  - double bar (ending)
 :  - bar (freetime)
 $  - Segno
 &  - Coda
Tempo markers -  = BPM(8/16=s8/s16), where s8 = swing 8ths, s16 = swing 16ths
Suggest correction
Creating personal tab
Creating personal tab
You can edit any tab online and save it as your Personal.

You can edit, replace or remove any tab part or add personal notes – all changes will be seen only by you.

Personal tabs can be accessed anytime from any device, even offline.
Learn more »
Give kudos to tab author, rate the tab!
1 2 3 4 5
comments
print report bad tab
guest
You may want to rate the tab now too:
select rating
Wanna post a correction for this tab? Suggest correction