Oops, an error
Loading. Please wait.

She Has Funny Cars Bass Tab

version 1
version 1

Whole song

Interactive

584 views 6 this week
no commentswrite comment
1 2 3 4 5
please rate
add to favorites
launch autoscroll
font size
0
reset
guitar tuner
Autoscroll
slow
fast
+/-
esc
set tempo
stop
Help us to improve Ultimate-Guitar.com Take our survey!
×
Author
Difficulty
novice
===============================================================================
                 Jefferson Airplane - She Has Funny Cars
===============================================================================

Written by: Kannibus
Tuning: Standard

G|-------------------------------------------------------------------------|
D|-------------------------------------------------------------------------|x11
A|----7--5--4--------------------------------------------------------------|
E|----------------7---5---0------------------------------------------------|

G|-------------------------------------------------------------------------|
D|-------------------------------------------------------------------------|
A|---------------------12--------2---2---2---2---1--1----------------------|
E|---5---7---10---12-------------------------------------------------------|

G|-------------------------------------------------------------------------|
D|-------------------------------------------------------------------------|x8
A|-----1---1----2---2---2---2---1--1---------------------------------------|
E|-------------------------------------------------------------------------|


G|-------------------------------------------------------------------------| 
D|-------------------------------------------------------------------------|x4
A|-------------------------------------------------------------------------|
E|-----7----5-------------0----2-------------------------------------------|


Repeat first riff 11 times.
Repeat second riff 8 times.
Repeat fourth riff 4 times.
Suggest correction
Give kudos to tab author, rate the tab!
1 2 3 4 5
comments
print report bad tab
guest
You may want to rate the tab now too:
select rating
Please do not post tabs as comments. Select "correction" instead!