Oops, an error
Loading. Please wait.

She Has Funny Cars Bass Tab

version 2
version 2

Whole song

Interactive

310 views 3 this week
1 commentread comment
1 2 3 4 5
3 more votes to show rating
add to favorites
launch autoscroll
font size
0
reset
guitar tuner
Autoscroll
slow
fast
+/-
esc
set tempo
stop
Help us to improve Ultimate-Guitar.com Take our survey!
×
Author
Difficulty
intermediate
Jefferson Airplane
Album:Surrealistic Pillow
Year:1967

Intro/Verese
G------------------------------------------------------------------|
D------------------------------------------------------------------|
A--7-5-4------7-5-4------7-5-4-----7-5-4-----7-5-4-----7-5-4-------|
E-------7-5-0------7-5-0------7-5-0-----7-5-0-----7-5-0------7-5-0-|

G-------------------------------------------------------------|
D-------------------------------------------------------------|
A--7-5-4-----7-5-4-----7-5-4------7-5-4----------------12-----|
E-------7-5-0-----7-5-0-----7-5-0------7-5-0--5-7-10-12-------|

Bass Intro
G----------|
D----------|
A-12-13-14-|
E----------|

Bridge
G-----------------|
D-----------------|
A-14-9-9-12-14  1-|4x
E-----------------|

Chorus
G------------|
D------------|
A-14-12-7-9--| 3x
E------------|

Before going into Verse(play when guitar comes in)then go into verse
G------------|
D------------|
A-7--7--7--7-| (ring notes out)
E------------|

Ending solo jam(inpervise Jack is a techical bassesit and hard to make out)
G------------|
D------------|
A------------|
E--7-7-3-5-7-|
Suggest correction
Give kudos to tab author, rate the tab!
1 2 3 4 5
comments
print report bad tab
1 comment total.
0 reply
JOHNFurdo 31 Mar 06, 2013 07:32 AM

on the bridge the:
G-------------
D-------------
A-14-9-9-12-14
E-------------

thats what is was suppose to be

guest
You may want to rate the tab now too:
select rating
Wanna post a correction for this tab? Suggest correction