Oops, an error
Loading. Please wait.

She Has Funny Cars Tab

version 2
version 2

Whole song

Interactive

9,953 views 24 this week
1 commentread comment
1 2 3 4 5
1 last vote to show rating
add to favorites
launch autoscroll
font size
0
reset
how to read this tab
guitar tuner
Autoscroll
slow
fast
+/-
esc
set tempo
stop
Help us to improve Ultimate-Guitar.com Take our survey!
×
-------------------------------------------------------------------------------
                             SHE HAS FUNNY CARS - Jefferson Airplane
-------------------------------------------------------------------------------
Tabbed by: Autumn N. (happypilot100)
Email: anx93@aol.com

Tuning: Standard

*Edited on January 11 ('09)*

I listened to the song and I heard four guitars: lead (six-string), 
rhythm (12-string), bass and fuzz bass. To me, 
they all sound alike except for the lead. 
This is what I play. Please test,rate, and/or comment.
Thanks, and enjoy!

Guitar 1- Lead (Jorma Kaukonen)
Guitar 2- Rhythm (Paul Kantner)

Key:
/ - Slide Up
\ - Slide Down
b - bend
~ - vibrato/let note ring

Intro
*Rest for drum intro*

Gtr 1
e|--------------------------|
B|--------------------------|
G|--------------------------|
D|--------------------------|
A|--7-5-4-2-0----7-5-4-2-0--|
E|0-----------0------------0|


Gtr 1
e|---------------------|
B|9-7--------9-7---7-9/|
G|9-7-6-4-2--9-7-6-7-9/|
D|9-7-6-4-2--9-7-6-7-9/|
A|---------------------|
E|---------------------|

Gtr 2
e|--------------------|
B|--------------------|
G|9-7-6-4-2--9-7-6-7-9|
D|9-7-6-4-2--9-7-6-7-9|
A|7-5-4-2-0--7-5-4-5-7|
E|--------------------|


Verse

"Everyday..."
Gtr 1
e|-------------------------------------------|
B|9-7--------9-7--------9-7--------9-7-6-7-9/|
G|9-7-6-4-2--9-7-6-4-2--9-7-6-4-2--9-7-6-7-9/|
D|9-7-6-4-2--9-7-6-4-2--9-7-6-4-2--9-7-6-7-9/|
A|-------------------------------------------|
E|-------------------------------------------|

Gtr 2
e|------------------------------------------|
B|------------------------------------------|
G|9-7-6-4-2--9-7-6-4-2--9-7-6-4-2--9-7-6-7-9|
D|9-7-6-4-2--9-7-6-4-2--9-7-6-4-2--9-7-6-7-9|
A|7-5-4-2-0--7-5-4-2-0--7-5-4-2-0--7-5-4-5-7|
E|------------------------------------------|

"Time..."
Gtr 1
e|--------------------------------|
B|9-7--------9-7--------9-7-------|
G|9-7-6-4-2--9-7-6-4-2--9-7-6-4-2/|
D|9-7-6-4-2--9-7-6-4-2--9-7-6-4-2/|
A|--------------------------------|
E|--------------------------------|

Gtr 2
e|-------------------------------|
B|-------------------------------|
G|9-7-6-4-2--9-7-6-4-2--9-7-6-4-2|
D|9-7-6-4-2--9-7-6-4-2--9-7-6-4-2|
A|7-5-4-2-0--7-5-4-2-0--7-5-4-2-0|
E|-------------------------------|


Gtr 1
e|-----------|
B|-----------|
g|-----------|
G|-----------|
D|--------/7~|
A|0-2-5-7----|
E|-----------|

Gtr 2
e|----------|
B|----------|
G|2-4-7-9-9~|
D|2-4-7-9-9~|
A|0-2-5-7-7~|
E|----------|


Chorus
Gtr 1
*I will post this part when I finish transcribing it on paper*

Gtr 2
e|---------------|
B|3-3-2-2-3-3-2-2|
G|4-4-4-4-4-4-4-4|
D|---------------|
A|---------------|
E|---------------|

"You can do..."
Gtr 2
e|---------------|
B|3-3-2-2-3-3-2-2|
G|4-4-4-4-4-4-4-4|
D|---------------|
A|---------------|
E|---------------|

"The world's..."
Gtr 2
e|---------------|
B|3-3-2-2-3-3-2-2|
G|4-4-4-4-4-4-4-4|
D|---------------|
A|---------------|
E|---------------|

"You..."
Gtr 2
e|-------|
B|3-3-2-2|
G|4-4-4-4|
D|-------|
A|-------|
E|-------|

"All..."
Gtr 2
e|-------|
B|3-3-2-2|
G|4-4-4-4|
D|-------|
A|-------|
E|-------|

"Or all..."
Gtr 2
e|---------------|
B|3-3-2-2-3-3-2-2|
G|4-4-4-4-4-4-4-4|
D|---------------|
A|---------------|
E|---------------|

"And I know..."
Gtr 2
e|-----------------------|
B|3-3-2-2-3-3-2-2-3-3-2-2|
G|4-4-4-4-4-4-4-4-4-4-4-4|
D|-----------------------|
A|-----------------------|
E|-----------------------|

"Your..."
Gtr 1
e|-------------------------------|
B|-------------------------------|
G|-4-2-------4-2-------4-2-------|
D|-4-2--2-4--4-2--2-4--4-2--2-4--|
A|-2-0--2-4--2-0--2-4--2-0--2-4--|
E|------0-2-------0-2-------0-2~-|

Gtr 2
e|---------------------------------|
B|---------------------------------|
G|-4-2-------4-2-------4-2---------|
D|-4-2--2-4--4-2--2-4--4-2--2-4-4--|
A|-2-0--2-4--2-0--2-4--2-0--2-4-4--|
E|------0-2-------0-2-------0-2-2~-|

Verse 2

Gtr 1
e|-------------------------------------------|
B|9-7--------9-7--------9-7--------9-7-6-7-9/|
G|9-7-6-4-2--9-7-6-4-2--9-7-6-4-2--9-7-6-7-9/|
D|9-7-6-4-2--9-7-6-4-2--9-7-6-4-2--9-7-6-7-9/|
A|-------------------------------------------|
E|-------------------------------------------|

Gtr 2
e|------------------------------------------|
B|------------------------------------------|
G|9-7-6-4-2--9-7-6-4-2--9-7-6-4-2--9-7-6-7-9|
D|9-7-6-4-2--9-7-6-4-2--9-7-6-4-2--9-7-6-7-9|
A|7-5-4-2-0--7-5-4-2-0--7-5-4-2-0--7-5-4-5-7|
E|------------------------------------------|

"We live..."
Gtr 1
e|--------------------------------|
B|9-7--------9-7--------9-7-------|
G|9-7-6-4-2--9-7-6-4-2--9-7-6-4-2/|
D|9-7-6-4-2--9-7-6-4-2--9-7-6-4-2/|
A|--------------------------------|
E|--------------------------------|

Gtr 2
e|-------------------------------|
B|-------------------------------|
G|9-7-6-4-2--9-7-6-4-2--9-7-6-4-2|
D|9-7-6-4-2--9-7-6-4-2--9-7-6-4-2|
A|7-5-4-2-0--7-5-4-2-0--7-5-4-2-0|
E|-------------------------------|

"If you..."
Gtr 1
e|-------------------------------------------|
B|9-7--------9-7--------9-7--------9-7-6-7-9/|
G|9-7-6-4-2--9-7-6-4-2--9-7-6-4-2--9-7-6-7-9/|
D|9-7-6-4-2--9-7-6-4-2--9-7-6-4-2--9-7-6-7-9/|
A|-------------------------------------------|
E|-------------------------------------------|

Gtr 2
e|------------------------------------------|
B|------------------------------------------|
G|9-7-6-4-2--9-7-6-4-2--9-7-6-4-2--9-7-6-7-9|
D|9-7-6-4-2--9-7-6-4-2--9-7-6-4-2--9-7-6-7-9|
A|7-5-4-2-0--7-5-4-2-0--7-5-4-2-0--7-5-4-5-7|
E|------------------------------------------|


Gtr 1
e|-----------|
B|-----------|
g|-----------|
G|-----------|
D|--------/7~|
A|0-2-5-7----|
E|-----------|

Gtr 2
e|----------|
B|----------|
G|2-4-7-9-9~|
D|2-4-7-9-9~|
A|0-2-5-7-7~|
E|----------|

Chorus
Gtr 2
e|---------------|
B|3-3-2-2-3-3-2-2|
G|4-4-4-4-4-4-4-4|
D|---------------|
A|---------------|
E|---------------|

"Some..."
Gtr 2
e|---------------|
B|3-3-2-2-3-3-2-2|
G|4-4-4-4-4-4-4-4|
D|---------------|
A|---------------|
E|---------------|

"Flash!..."
Gtr 2
e|---------------|
B|3-3-2-2-3-3-2-2|
G|4-4-4-4-4-4-4-4|
D|---------------|
A|---------------|
E|---------------|

"They're..."
Gtr 2
e|-------|
B|3-3-2-2|
G|4-4-4-4|
D|-------|
A|-------|
E|-------|

"With..."
Gtr 2
e|-------|
B|3-3-2-2|
G|4-4-4-4|
D|-------|
A|-------|
E|-------|

"Trying..."
Gtr 2
e|---------------|
B|3-3-2-2-3-3-2-2|
G|4-4-4-4-4-4-4-4|
D|---------------|
A|---------------|
E|---------------|

"And I know..."
Gtr 2
e|-----------------------|
B|3-3-2-2-3-3-2-2-3-3-2-2|
G|4-4-4-4-4-4-4-4-4-4-4-4|
D|-----------------------|
A|-----------------------|
E|-----------------------|

"Your..."
Gtr 1
e|-------------------------------|
B|-------------------------------|
G|-4-2-------4-2-------4-2-------|
D|-4-2--2-4--4-2--2-4--4-2--2-4--|
A|-2-0--2-4--2-0--2-4--2-0--2-4--|
E|------0-2-------0-2-------0-2~-|

Gtr 2
e|---------------------------------|
B|---------------------------------|
G|-4-2-------4-2-------4-2---------|
D|-4-2--2-4--4-2--2-4--4-2--2-4-4--|
A|-2-0--2-4--2-0--2-4--2-0--2-4-4--|
E|------0-2-------0-2-------0-2-2~-|


Outro
Gtr 1
e|--------------------------------------12-12bbp10h12-10----|
B|---------------------12---------12-10------------------12-|
G|--7-9-9b--------11-9-------11-9---------------------------| cont.
D|---------9---12---------12--------------------------------| below
A|9----------9----------------------------------------------|
E|----------------------------------------------------------|

e|----------------------------------7----7----7-7-|
B|--7----7-------------------7--------10b--10b----|
G|9b---9b--9-7-----7---7---7---9-9b---------------| cont.
D|-------------9--9--99--9------------------------| below
A|------------------------------------------------|
E|------------------------------------------------|

e|10-12bbh14\10\7---------------------------------------------|
B|---------------------------------------------------------7-7|
G|----------------9p7-----7-9-9bbb-9-7---7---9-7-7-9b-9-7--9-9|
D|--------------------9-7--------------9---9----9--------9----|
A|------------------------------------------------------------|
E|------------------------------------------------------------|
  ^                              ^
song begins to fade       song is almost totally faded

Gtr 2 - Just repeat:
e|------------|
B|------------|
G|11-9-7-6-4--|
D|11-9-7-6-4--|
A|9--7-5-4-2--|
E|------------|

That's basically it. If you want me to add the Fuzz Bass part, comment it.
Suggest correction
Give kudos to tab author, rate the tab!
1 2 3 4 5
comments
print report bad tab
1 comment total.
0 reply
Cazzo 10 Mar 07, 2008 04:48 PM

It's a good tab, I liked it.

guest
You may want to rate the tab now too:
select rating
Wanna post a correction for this tab? Suggest correction