Oops, an error
Loading. Please wait.

Somebody To Love Bass Tab

version 3
version 3

Whole song

Interactive

5,744 views 33 this week
1 commentread comment
1 2 3 4 5
worth learning
x 3
add to favorites
launch autoscroll
font size
0
reset
guitar tuner
Tab Pro tools
  • play this tab
  • loop segment
  • change instrument
  • show fretboard
  • metronome
×
Best way to learn
"Somebody To Love"
Autoscroll
slow
fast
+/-
esc
set tempo
stop
Contributor
Difficulty
intermediate
===============================================================================
                             Jefferson Airplane - Somebody To Love
===============================================================================
Written by: Kannibus
Tuning: Standard


G|-------------------------------------------------------------------------|
D|---------------------------------------------2--2--2---------------------|x2
A|-----------------------------2--2--2--2--2-------------------------------|
E|---2--2--2--2--2--2--0--2------------------------------------------------|

G|-------------------------------------------------------------------------|
D|-------------------------------------------------------------------------|
A|-----------------------------2--2--2--2--2--2--0--2----------------------|
E|---2--2--2--2--2--2--0--2------------------------------------------------|

G|-------------------------------------------------------------------------|
D|-------------------------------------------------------------------------|
A|-------------------------------------7------7--7-------------------------|
E|---2----2--------------5------5--5---------------------------------------|

G|-------------------------------------------------------------------------|
D|-------------------------------------------------------------------------|x2
A|---9-------------------------------------------------7------7--7---------|
E|-------9---8--7---------7--7--7--------5------5--5-----------------------|

G|-------------------------------------------------------------------------|
D|-------------------------------------------------------------------------|
A|---9------------------------------7------7--7----------------------------|
E|-------9---8--7---------7--7--7-----------------7------7--7--------------|

G|-------------------------------------------------------------------------|
D|---------------------------------1---------------------------------------|
A|-----------2--2--2--2--2--2--4-------------------------------------------|
E|---7----7----------------------------------------------------------------|

G|-------------------------------------------------------------------------|
D|---4----4---------------2-----2--2--2--2--2--2--2------------------------|
A|---------------------------------------------------4---------------------|
E|-------------------------------------------------------------------------|

G|-------------------------------------------------------------------------|
D|---4------------2--2--4--2-----------------------------------------------|x2
A|------------4---------------4--------------------------------------------|
E|-------------------------------------------------------------------------|

Repeat second tiff 3 times.

G|-------------------------------------------------------------------------|
D|-------------------------------------------------------------------------|x2
A|-----------------------------2--2--2--2--2-------------------------------|
E|---2--2--2--2--2--2--0--2--------------------2--3--4---------------------|

G|-------------------------------------------------------------------------|
D|-------------------------------------------------------------------------|x3
A|-----------------7--7--7--------9----------------------------------------|
E|---5------5--5----------------------9--8--7--------7--7--7---------------|

G|-------------------------------------------------------------------------|
D|-------------------------------------------------------------------------|
A|---7------7--7-----------------------------------------------------------|
E|-----------------7------7--7-------2--2----------------------------------|

Rest

G|-------------------------------------------------------------------------|
D|-------------------------------------------------------------------------|
A|----------------2--2--3--4------------2------3--4------------------------|
E|---2--2--5--5-----------------2---5--------------------------------------|

G|-------------------------------------------------------------------------|
D|---4---------2--2--4--2-----------------2--2-----2-----------------------|
A|---------4---------------4----2--2--4---------4-----4--------------------|
E|-------------------------------------------------------------------------|

G|-------------------------------------------------------------------------|
D|---4--------2--2--4--4--2--------4--4--2---------------------------------|
A|---------4-----------------4--------------4--4--3--2--1------------------|
E|-------------------------------------------------------------------------|

Repeat tenth riff 10 times.

G|-------------------------------------------------------------------------|
D|-------------------------------------------------------------------------|
A|---7------7--7-----------------------------------------------------------|
E|-----------------7------7--7------7----7---------------------------------|

G|-------------------------------------------------------------------------|
D|-----------------------1----4---4--------2-------------------------------|
A|--2--2--2--2--2--2--4----------------------------------------------------|
E|-------------------------------------------------------------------------|

G|-------------------------------------------------------------------------|
D|--2--2--2--2--2--2-----4-------2--2--2--4--2-----------------------------|
A|--------------------4-------4-----------------4--------------------------|
E|-------------------------------------------------------------------------|

G|-------------------------------------------------------------------------|
D|--4---------2--2--2--4--2------------------------------------------------|
A|---------4-----------------4---------------------------------------------|
E|-------------------------------------------------------------------------|

Repeat first riff 3 times (ending on the beginning part.)

G|-------------------------------------------------------------------------|
D|-------------------------------------------------------------------------|
A|------------------------------------7------7--7--------------------------|
E|---2--2----------------5------5--5---------------------------------------|

G|-------------------------------------------------------------------------|
D|-------------------------------------------------------------------------|x3
A|----------------------------------------7------7--7----------------------|
E|---7--7--7--7--7--7--7-----5------5--5-----------------------------------|

G|-------------------------------------------------------------------------|
D|-------------------------------------------------------------------------|x4
A|-------------------------------------------------------------------------|
E|--7--7-------------------------------------------------------------------|

G|-------------------------------------------------------------------------|
D|---------2--3--4--2----------4---------2------4---4--2-------------------|
A|--2--4---------------4--------------4-------------------4----------------|
E|------------------------5------------------------------------------------|

G|-------------------------------------------------------------------------|
D|--4------3--2--3--4--2--4------------2--3--4-----------------------------|
A|----------------------------2--3--4-------------2---4--------------------|
E|-------------------------------------------------------------------------|

G|-------------------------------------------------------------------------|
D|-------------4--3--2-------------------------2--3--4---------------------|
A|------3--4------------4--3---2--1--2--3--4-------------------------------|
E|--2----------------------------------------------------------------------|

G|-------------------------------------------------------------------------|
D|-----------------2--3--4---4-----2--3--4---------------------------------|
A|--0--2--3--4--4---------------4-----------4--3--2------------------------|
E|-------------------------------------------------------------------------|

G|-------------------------------------------------------------------------|
D|-------------------------------------------------------------------------|x2
A|---------------7------7--------------------------------------------------|
E|--5------5--5----------------7--7---7--7---7--7---7--7-------------------|

G|-------------------------------------------------------------------------|
D|-------------------------------------------------------------------------|
A|-------------------------------------------------------------------------|
E|--7------7/---------------------------------------------------------------|

/ = Slide up.
comments
We did not receive enough feedback on this tab! Please rate:
print report bad tab
1 2 3 4 5
1 comment total.
0 reply
bruce51 wrote on August 4 2013, 11:30 am

There's a lot more to it than this!

I want to post or [tab]
guest
You may want to rate the tab now too:
select rating
Please do not post tabs as comments. Select "correction" instead!