Oops, an error
Loading. Please wait.

The Ballad Of You And Me And Pooneil Tab

version 1
version 1

Solo

Whole song

855 views 1 this week
no commentswrite comment
1 2 3 4 5
please rate
add to favorites
launch autoscroll
font size
0
reset
how to read this tab
guitar tuner
Autoscroll
slow
fast
+/-
esc
set tempo
stop
Help us to improve Ultimate-Guitar.com Take our survey!
×
Author
Difficulty
intermediate
-------------------------------------------------------------------------------
                             JEFFERSON AIRPLANE - The Ballad Of You And Me And Pooneil (Solo)
-------------------------------------------------------------------------------

Tabbed by: SebTM
Email: sebprunet@gmail.com

Tuning: Standard

The solo is divided in 3 parts and mixed with the vocals which are between each part. 
Don't forget to leave a comment !


03:03

e|----------------------------------------------------------------|
B|----------------------------13-15-15----------------11s13-11s13-|
G|--------10---12b~~----12h14----------14------12h 14-12s14-12s14-|
D|---12-----------------------------------------------------------|
A|----------------------------------------------------------------|
E|----------------------------------------------------------------|

e|-------------------------------------|
B|-------------10----------------------|
G|-12h14p12-10-12----------------------|
D|------------------12----10----10--12\|
A|---------------------12----12--------|
E|-------------------------------------|



03:32


e|-10-10-10-13-15-17~~-17s15-13-15-10------------------------------|
B|--------------------------------------13-10----------------------|
G|--------------------------------------------12-10----10-12 12b~~-|
D|--------------------------------------------------12-------------|
A|-----------------------------------------------------------------|
E|-----------------------------------------------------------------|

e|-----------------------------------------------|
B|--------13-15-13~~----11s13~~------------------|
G|--12h14------------14-12s14~~14-12----12-------|
D|-----------------------------------12----15-12-|
A|-----------------------------------------------|
E|-----------------------------------------------|


e|----------------------------------------------------|
B|----------------------------------------------------|
G|----------------------------------------------------|
D|---------10----10----10----10----10----10-12~-------|
A|-12---12----12----12----12----12----12--------------|
E|----------------------------------------------------|



03:55

e|--------------------------------------------------------------------------|
B|--------------------------------------------------------------------------|
G|------10---12b~~---12b-12-10----10-12b-12-10------------------------------|
D|-12--------------------------12--------------12--12---------10----10--12\-|
A|-----------------------------------------------------12--12----12---------|
E|--------------------------------------------------------------------------|




************************************

| /   slide up
| \   slide down
| h   hammer-on
| ~   vibrato
| b   Bend

************************************
Suggest correction
Give kudos to tab author, rate the tab!
1 2 3 4 5
comments
print report bad tab
guest
You may want to rate the tab now too:
select rating
Wanna post a correction for this tab? Suggest correction