Oops, an error
Loading. Please wait.

The Ballad Of You And Me And Pooneil Tab

version 1
version 1

Whole song

3,596 views 6 this week
no commentswrite comment
1 2 3 4 5
1 last vote to show rating
add to favorites
launch autoscroll
font size
0
reset
how to read this tab
guitar tuner
Autoscroll
slow
fast
+/-
esc
set tempo
stop
Help us to improve Ultimate-Guitar.com Take our survey!
×
Difficulty
novice
(Feedback)

Intro and verse:
Dm F Dm C

Chorus: (00:38)
Db B Db B A


0:48 Love like a mountain springtime… 
e|----5---3---0~-----5---3---7b---5~---|
B|--3---3---3------3---3---3----3------|
G|-------------------------------------|
D|-------------------------------------|
A|-------------------------------------|
E|-------------------------------------|

0:53
e|----5---3---0~--|
B|--3---3---3-----|
G|----------------|
D|----------------|
A|----------------|
E|----------------| x6

1:12
e|----5---7---0~-------5---3---0~--|
B|--3---3---3--------3---3---3-----|
G|---------------------------------|
D|---------------------------------|
A|---------------------------------|
E|---------------------------------|
                         …armadillo!


Do a bar chord shape A starting on first fret and keep moving up, then

e|---3--5-5---3--5-5-5-|
B|--1-1--3---1-1--3-3--|
G|---------------------|
D|---------------------|
A|---------------------|
E|---------------------|

Repeat verse
Suggest correction
Give kudos to tab author, rate the tab!
1 2 3 4 5
comments
print report bad tab
guest
You may want to rate the tab now too:
select rating
Wanna post a correction for this tab? Suggest correction