Oops, an error
Loading. Please wait.

Today Chords

version 1
version 1

Whole song

Interactive

28,074 views 75 this week
2 commentsread comments
1 2 3 4 5
x 4
add to favorites
launch autoscroll
font size
0
reset
transpose
0
reset
display chords
guitar tuner
Autoscroll
slow
fast
+/-
esc
set tempo
stop
Help us to improve Ultimate-Guitar.com Take our survey!
×
[Verse]
D
Today, I feel like pleasing you more than before

Today, I know what I wanna do, but I don't know what for
        C                F  Em  C   D    C  D
To be living for you is all I want to do
        C               F       Em            C       D      C  D
To be loving you it'll all be there when my dreams come true
Today, you make me say that I somehow have changed
Today, you look into my eyes I'm just not the same
To be any more than all I am would be a lie
I'm so full of love I could burst apart and start to cry
Today, everything you want I swear it all will come true
Today, I realize how much I'm in love with you
With you standing here I could tell the world what it means to love
To go on from here, I can't use words they don't say enough
Dm        Am     Bb      Am
Please, please listen to me
        Dm     Am            Bb
It's taken so long to come true
                  Bb
And it's all for you
         G 
All for you

[Outro]
                   D 
e|-----------------------2---|
B|---------------------3-----|
G|-------------------2-------|
D|-2---2h3p2---0---0---------|
A|-----------3---------------|
E|---------------------------|

[Guitar 1]
    D
e|-----------------------------------|
B|-------3-------3-------------3-----|
G|-----2---2---0---0---------2---2---|
D|---0-------------------0-----------|
A|-----------3-------2-3---0---------|
E|-----------------------------------|

[Guitar 2]
e|-15-12------------------------------|
B|--------10p8p10--15p13h15-----------|
G|------------------------------------|
D|------------------------------------|
A|------------------------------------|
E|------------------------------------|
Suggest correction
comments
print report bad tab
2 comments total.
0 reply
NatronthePLAYER 10 Nov 01, 2013 07:21 PM

I think this tab is a job well done especially addressing the 2 separate guitar parts. It might not be perfect but it'll do in the hands of a capable guitarist. Improv! The essence of rock'n'roll (other than Blues).

0 reply
stevegad 10 Aug 27, 2014 07:17 AM

On second guitar part why not do the bit after 10p8p10 on the top E string at same frets? Seems easier but great tab. Thanks.

guest
You may want to rate the tab now too:
select rating
Wanna post a correction for this tab? Suggest correction