Oops, an error
Loading. Please wait.

Volunteers Bass Tab

version 1
version 1

Whole song

Interactive

3,241 views 3 this week
no commentswrite comment
1 2 3 4 5
2 more votes to show rating
add to favorites
launch autoscroll
font size
0
reset
guitar tuner
Autoscroll
slow
fast
+/-
esc
set tempo
stop
Help us to improve Ultimate-Guitar.com Take our survey!
×
Author
Jefferson Airplane
"Volunteers"


Intro
G ------------------2-3-4-----------|
D --5---5-------3-------------------|
A ----5---5-3-4---5-------03-23-4-5-|   2 times
E ----------------------------------|

Verse
G ------------------2-3-4-----------|
D --5---5-------3-------------------|
A ----5---5-3-4---5-------03-23-4-5-|    3 times
E ----------------------------------|

Interlude
G -----7-------5-------4-------------------|
D --5-------3-------5-------5--------------|
A -------------------------------2-2-3-4-5-|
E -----------------------------3-----------|

Chorus
G ----------------------------------|
D --5---5-------3---3---3-------5---|
A ----5---5-034---5---5---5-034---5-|
E ----------------------------------|
Suggest correction
Give kudos to tab author, rate the tab!
1 2 3 4 5
comments
print report bad tab
guest
You may want to rate the tab now too:
select rating
Wanna post a correction for this tab? Suggest correction