Oops, an error
Loading. Please wait.

We Can Be Together Tab

6,148 views 12 this week
no commentswrite comment
1 2 3 4 5
accurate
x 6
add to favorites
launch autoscroll
font size
0
reset
how to read this tab
guitar tuner
Autoscroll
slow
fast
+/-
esc
set tempo
stop
Help us to improve Ultimate-Guitar.com Take our survey!
×
Author
Difficulty
intermediate
Jefferson Airplane

"we can be together"

The Best Of Jefferson Airplane
99% right

Intro:R1-Paul kanter
    D      C             C              D
e---2--2---0-0-0--0--|---0-0--0-0-0-----2-2-2--|-----------------------|
b---3--3---1-1-1--1--|---1-1--1-1-1-r---3-3-3--|-----------------------|
g---2--2---0-0-0--0--|---0-0--0-0-0-e---2-2-2--|-----------------------|
d---0--0---2-2-2--2--|---2-2--2-2-2-s---0-0-0--|-----------------------|
a----------3-3-3--3--|---3-3--3-3-3-t----------|-----------------------|
E----------0-0-0--0--|---0-0--0-0-0------------|-----------------------|
Intro:L
Jorma Kaukonen

e-----10-|-----10------10-----10-13-10-|----10---------|-------------|
b-13^----|-13^-----13^----13^----------|-13----10-13^--|-------------|
g--------|-----------------------------|---------------|-Play-R1-----|
d--------|-----------------------------|---------------|-------------|
a--------|-----------------------------|---------------|-------------|
E--------|-----------------------------|---------------|-------------|
                                                    R1

e-----|--------------------------|----------------|------------------|
b-----|--------------------------|----------------|------------------|
g-----|------------------10~-12^-|--12^rp10-------|------------------|
d-12~-|-12--12-12--12-12---------|----------12-10-|-12-12--12-12-----|
a-----|--------------------------|----------------|------------------|
E-----|--------------------------|----------------|------------------|
                              G      D         C
e-----------|--------------||-----------------------------------------|
b-----------|--------------||-----------------------------------------|
g-----------|--------------||-7--7------------------------------------|
d-12-12-10--|-10/9--7-7--7-||-------9p7--7-9^r-----------------12-----|
a-----------|--------------||------------------7--10/12--12/14--------|
E-----------|--------------||-----------------------------------------|
  G               D         C                  G     D         C
e-------------------------|------------------|------------------|----|
b-------------------------|------------------|------------------|----|
g--------slide?-----------|-----------0--5/7-|-7--7/?-----------|----|
d-12--12/------\--7---7-7-|------------------|----------7---7/9\|7---|
a-------------------9-----|------------------|------------9-----|--7-|
E-------------------------|------------------|------------------|----|

                  G     D      C
e---------------|------------|--------------||------------------|
b---------------|------------|--------------||------------------|
g---------------|------------|--------------||------------------|
d-0-7p0--7p0--7-|-0----------|--------------||------------------|
a---------------|------------|--------------||------------------|
E---------------|------------|--------------||------------------|

Thank You Please Rate!


Lyrics*

We can be together
Ah you and me
We should be together
We are all outlaws in the eyes of america
In order to survive we steal cheat lie forge fred hide and deal
We are obscene lawless hideous dangerous dirty violent and young
But we should be together
Come on all you people standing around
Our lifes too fine to let it die and
We can be together
All your private property is
Target for your enemy
And your enemy is
We
We are forces of chaos and anarchy
Everything they say we are we are
And we are very
Proud of ourselves
Up against the wall
Up against the wall fred (motherfucker)
Tear down the walls
Tear down the walls
Come on now together
Get it on together
Everybody together
We should be together
We should be together my friends
We can be together
We will be
We must begin here and now
A new continent of earth and fire
Come on now gettin higher and higher
Tear down the walls
Tear down the walls
Tear down the walls
Wont you try
Suggest correction new What's this?
You can suggest a correction to this tab. Community and Mods will review your correction and vote to approve or reject it.
comments
print report bad tab
guest
You may want to rate the tab now too:
select rating
Please do not post tabs as comments. Select "correction" instead!