Oops, an error
Loading. Please wait.

White Rabbit Bass Tab

version 2
version 2

Whole song

Interactive

  • Primarily, I think the lead guitar in my tab sounds more "original".
20,584 views 12 this week
12 commentsread comments
1 2 3 4 5
worth learning
x 12
add to favorites
launch autoscroll
font size
0
reset
guitar tuner
Autoscroll
slow
fast
+/-
esc
set tempo
stop
Help us to improve Ultimate-Guitar.com Take our survey!
×
Author
Difficulty
Fleisch 124
novice
Jefferson Airplane
White Rabbit
Bass

This is not the whole song, just all of the parts of it.

I made this because all of the bass tabs on here are incorrect.

Inro/Main Riff:
                
G||-------------------------------|-------------------------------|
D||-------------------------------|-------------------------------|
A||--9-----9-----------9-------9--|--9-----9-----------9-------9--|
E||-----------9-9-9-9--------9----|-----------9-9-9-9--------9----|

G||----------------------------------------|
D||----------------------------------------|
A||--10-----10---------------10--------10--|
E||-------------10-10-10-10---------10-----|
            
G||----------------------------------------|-------------------------------|
D||----------------------------------------|-------------------------------|
A||--10-----10---------------10--------10--|--9-----9-----------9-------9--|
E||-------------10-10-10-10---------10-----|-----------9-9-9-9--------9----|
          
G||-------------------------------|----------------------------------------|
D||-------------------------------|----------------------------------------|
A||--9-----9-----------9-------9--|--10-----10---------------10--------10--|
E||-----------9-9-9-9--------9----|-------------10-10-10-10---------10-----|
            
G||----------------------------------------|
D||----------------------------------------|
A||--10-----10---------------10--------10--|
E||-------------10-10-10-10---------10-----|

First Chorus:

G||-----------------------|
D||-----------------------|
A||-----------------------|
E||--5----5----5----5--7--|

G||---------------------|-----------------------|--------------------------|
D||---------------------|-----------------7--7--|--------------------------|
A||-----------5----5----|-----------------------|-----------7--------------|
E||--8------------------|--5----5----5----------|--5--5--5-----5-----8--9--|
         
G||-------------------------------|-------------------------------|
D||-------------------------------|-------------------------------|
A||--9-----9-----------9-------9--|--9-----9-----------9-------9--|
E||-----------9-9-9-9--------9----|-----------9-9-9-9--------9----|

Bridge:         
----------------------------|-----------------------|--------------------------|
----------------------------|-----------------------|--------------------------|
-------------5----5-5-5-----|-----------------------|--------------------4--5--|
--8----8--8--------------8--|--5----5----5----5--5--|--5--5--5--5--7--8--------|
 
-------------------------|------------------------|--------------------------|
-------------------------|------------------------|--------------------------|
--7----7--7--7----7--5---|--7----7--7--7----7-----|--------------------------|
-------------------------|---------------------7--|--5--5--5--5--5--5--5--5--|
   
-------------------------|---------------------------|-------------------------|
-------7-----------------|-------9-------------------|-------9-----------------|
----------7--------------|--7-------7-----7--5----5--|--7-------7--7--7--7-----|
--5----------5--6--7--8--|---------------------7-----|----------------------7--|

-----------------------|--------------------------|
-------7----------7----|--------7-----------------|
-----------------------|-----------------------8--|
--5---------5--5-------|--5--5-----5--7--8--9-----|

Outro:
|-------------------------|
|-------------------------|
|----------------------2--|
|--5----5--5--5--5--5-----|

--------------------------|--------------------------|
--------------------------|--------------------------|
--3--2--3--4--5--4--5--4--|--------------------------|
--------------------------|--5--5--5--5--5--5--5--5--|

--------------------------|--------------------------|
--------------------------|--------------------------|
-----------5--7--7--7--7--|--------------------------|
--5--5--5-----------------|--5--5--5--5--5--5--5--5--|
 
--------------------------|--------------------------|
--------------------------|--------------------------|
-----------5--7--7--7--7--|--------------------------|
--5--5--5-----------------|--5--5--5--5--5--5--5--5--|
                            
                            let ring
--------------------------|-------------------|-------------------||
--------------------------|-------------------|-------------------||
--------------------------|-------------------|-------------------||
--5--5--5--5--5--5--5--5--|--5----------------|-------------------||

Suggest correction
What's this?
You can suggest a correction to this tab. Community and Mods will review your correction and vote to approve or reject it.
comments
print report bad tab
12 comments total. Showing first comments. show 1 bad comment
-2 reply
dmazurek 13 wrote on June 7 2009, 05:47 pm

its completely wrong

+1 reply
Jag Black 29 wrote on June 15 2009, 02:55 pm

Haha this is actually right. Don't listen to dmazurek. He is probably one of the people who tabbed the intro like this:


G|-------------------|
D|-------------------|
A|-------9--9-----9--|
E|--9--9------9-----9|

guest
You may want to rate the tab now too:
select rating
Please do not post tabs as comments. Select "correction" instead!