Oops, an error
Loading. Please wait.

White Rabbit Bass Tab

version 3
version 3

Whole song

Interactive

43,139 views 147 this week
1 commentread comment
1 2 3 4 5
excellent!
x 13
add to favorites
launch autoscroll
font size
0
reset
guitar tuner
Tab Pro tools
  • play this tab
  • loop segment
  • change instrument
  • show fretboard
  • metronome
×
Best way to learn
"White Rabbit"
Autoscroll
slow
fast
+/-
esc
set tempo
stop
Contributor
Difficulty
novice
Band: Jefferson Airplane
Song: White Rabbit
Instrument: Bass (Jack Casady)

Tabbed by: Mescalino


              |-3-|       |-3|                |-3-|       |-3|     
     E.  S E  S S S E  E  E  S E     E.  S E  S S S E  E  E  S E   
G||-------------------------------|-------------------------------|
D||-------------------------------|-------------------------------|
A||--9-----9-----------9--L----9--|--9-----9-----------9--L----9--|
E||-----------9-9-9-9--------9----|-----------9-9-9-9--------9----|


              |--3--|         |-3-|      
   E.  S  E   S  S  S  E   E  E   S  E   
----------------------------------------|
----------------------------------------|
--10-----10---------------10--L-----10--|
-------------10-10-10-10---------10-----|


              |--3--|         |-3-|                 |-3-|       |-3|     
   E.  S  E   S  S  S  E   E  E   S  E     E.  S E  S S S E  E  E  S E   
----------------------------------------|-------------------------------|
----------------------------------------|-------------------------------|
--10-----10---------------10--L-----10--|--9-----9-----------9--L----9--|
-------------10-10-10-10---------10-----|-----------9-9-9-9--------9----|


           |-3-|       |-3|                   |--3--|         |-3-|      
  E.  S E  S S S E  E  E  S E      E.  S  E   S  S  S  E   E  E   S  E   
-------------------------------|----------------------------------------|
-------------------------------|----------------------------------------|
--9-----9-----------9--L----9--|--10-----10---------------10--L-----10--|
-----------9-9-9-9--------9----|-------------10-10-10-10---------10-----|


              |--3--|         |-3-|                 |-3-|       |-3|     
   E.  S  E   S  S  S  E   E  E   S  E     E.  S E  S S S E  E  E  S E   
----------------------------------------|-------------------------------|
----------------------------------------|-------------------------------|
--10-----10---------------10--L-----10--|--9-----9-----------9--L----9--|
-------------10-10-10-10---------10-----|-----------9-9-9-9--------9----|


           |-3-|       |-3|                   |--3--|         |-3-|      
  E.  S E  S S S E  E  E  S E      E.  S  E   S  S  S  E   E  E   S  E   
-------------------------------|----------------------------------------|
-------------------------------|----------------------------------------|
--9-----9-----------9--L----9--|--10-----10---------------10--L-----10--|
-----------9-9-9-9--------9----|-------------10-10-10-10---------10-----|


              |--3--|         |-3-|                 |-3-|       |-3|     
   E.  S  E   S  S  S  E   E  E   S  E     E.  S E  S S S E  E  E  S E   
----------------------------------------|-------------------------------|
----------------------------------------|-------------------------------|
--10-----10---------------10--L-----10--|--9-----9-----------9--L----9--|
-------------10-10-10-10---------10-----|-----------9-9-9-9--------9----|


           |-3-|       |-3|                   |--3--|         |-3-|      
  E.  S E  S S S E  E  E  S E      E.  S  E   S  S  S  E   E  E   S  E   
-------------------------------|----------------------------------------|
-------------------------------|----------------------------------------|
--9-----9-----------9--L----9--|--10-----10---------------10--L-----10--|
-----------9-9-9-9--------9----|-------------10-10-10-10---------10-----|


              |--3--|         |-3-|                 |-3-|       |-3|     
   E.  S  E   S  S  S  E   E  E   S  E     E.  S E  S S S E  E  E  S E   
----------------------------------------|-------------------------------|
----------------------------------------|-------------------------------|
--10-----10---------------10--L-----10--|--9-----9-----------9--L----9--|
-------------10-10-10-10---------10-----|-----------9-9-9-9--------9----|


           |-3-|       |-3|                   |--3--|         |-3-|      
  E.  S E  S S S E  E  E  S E      E.  S  E   S  S  S  E   E  E   S  E   
-------------------------------|----------------------------------------|
-------------------------------|----------------------------------------|
--9-----9-----------9--L----9--|--10-----10---------------10--L-----10--|
-----------9-9-9-9--------9----|-------------10-10-10-10---------10-----|


              |--3--|         |-3-|                              
   E.  S  E   S  S  S  E   E  E   S  E     Q    Q    Q    E  E   
----------------------------------------|-----------------------|
----------------------------------------|-----------------------|
--10-----10---------------10--L-----10--|-----------------------|
-------------10-10-10-10---------10-----|--5----5----5----5--7--|


  H        Q    Q       Q    Q    Q    E  E     E  E  E  E  E  E  E  E   
---------------------|-----------------------|--------------------------|
---------------------|-----------------7--7--|--------------------------|
-----------5----5----|-----------------------|-----------7--------------|
--8------------------|--5----5----5----------|--5--5--5-----5-----8--9--|


           |-3-|       |-3|                |-3-|       |-3|     
  E.  S E  S S S E  E  E  S E     E.  S E  S S S E  E  E  S E   
-------------------------------|-------------------------------|
-------------------------------|-------------------------------|
--9-----9-----------9--L----9--|--9-----9-----------9--L----9--|
-----------9-9-9-9--------9----|-----------9-9-9-9--------9----|


              |--3--|         |-3-|      
   E.  S  E   S  S  S  E   E  E   S  E   
----------------------------------------|
----------------------------------------|
--10-----10---------------10--L-----10--|
-------------10-10-10-10---------10-----|


              |--3--|         |-3-|                 |-3-|       |-3|     
   E.  S  E   S  S  S  E   E  E   S  E     E.  S E  S S S E  E  E  S E   
----------------------------------------|-------------------------------|
----------------------------------------|-------------------------------|
--10-----10---------------10--L-----10--|--9-----9-----------9--L----9--|
-------------10-10-10-10---------10-----|-----------9-9-9-9--------9----|


           |-3-|       |-3|                   |--3--|         |-3-|      
  E.  S E  S S S E  E  E  S E      E.  S  E   S  S  S  E   E  E   S  E   
-------------------------------|----------------------------------------|
-------------------------------|----------------------------------------|
--9-----9-----------9--L----9--|--10-----10---------------10--L-----10--|
-----------9-9-9-9--------9----|-------------10-10-10-10---------10-----|


              |--3--|         |-3-|                               
   E.  S  E   S  S  S  E   E  E   S  E     Q    Q    E  E  E  E   
----------------------------------------|------------------------|
----------------------------------------|------------------------|
--10-----10---------------10--L-----10--|------------------------|
-------------10-10-10-10---------10-----|--5----5----5--5--5--7--|


                |-3-|                                                           
  Q    E  E  E  S S S E  E     Q    Q    Q    E  E     E  E  E  E  E  E  E  E   
----------------------------|-----------------------|--------------------------|
----------------------------|-----------------------|--------------------------|
-------------5--L-5-5-5-----|-----------------------|--------------------4--5--|
--8----8--8--------------8--|--5----5----5----5--5--|--5--5--5--5--7--8--------|


  Q    E  E  Q    E  E      Q    E  E  Q    E  E     E  E  E  E  E  E  E  E   
-------------------------|------------------------|--------------------------|
-------------------------|------------------------|--------------------------|
--7----7--7--7----7--5S--|--7----7--7--7----7-----|--------------------------|
-------------------------|---------------------7--|--5--5--5--5--5--5--5--5--|


  Q    E  E  E  E  E  E     Q    E  E  E  S  S E  E     Q    E  E  E  E  E  E   
-------------------------|---------------------------|-------------------------|
-------7-----------------|-------9-------------------|-------9-----------------|
----------7--------------|--7-------7--L--7p-5----5--|--7-------7--7--7--7-----|
--5----------5--6--7--8--|---------------------7-----|----------------------7--|


  Q    Q    E  E  Q       E  E  E  E  E  E  E  E   
-----------------------|--------------------------|
-------7----------7----|--------7-----------------|
-----------------------|-----------------------8--|
--5---------5--5-------|--5--5-----5--7--8--9-----|


           |-3-|       |-3|                |-3-|       |-3|     
  E.  S E  S S S E  E  E  S E     E.  S E  S S S E  E  E  S E   
-------------------------------|-------------------------------|
-------------------------------|-------------------------------|
--9-----9-----------9--L----9--|--9-----9-----------9--L----9--|
-----------9-9-9-9--------9----|-----------9-9-9-9--------9----|


           |-3-|       |-3|                |-3-|       |-3|     
  E.  S E  S S S E  E  E  S E     E.  S E  S S S E  E  E  S E   
-------------------------------|-------------------------------|
-------------------------------|-------------------------------|
--9-----9-----------9--L----9--|--9-----9-----------9--L----9--|
-----------9-9-9-9--------9----|-----------9-9-9-9--------9----|


           |-3-|       |-3|                |-3-|       |-3|     
  E.  S E  S S S E  E  E  S E     E.  S E  S S S E  E  E  S E   
-------------------------------|-------------------------------|
-------------------------------|-------------------------------|
--9-----9-----------9--L----9--|--9-----9-----------9--L----9--|
-----------9-9-9-9--------9----|-----------9-9-9-9--------9----|


              |--3--|         |-3-|      
   E.  S  E   S  S  S  E   E  E   S  E   
----------------------------------------|
----------------------------------------|
--10-----10---------------10--L-----10--|
-------------10-10-10-10---------10-----|


              |--3--|         |-3-|                 |-3-|       |-3|     
   E.  S  E   S  S  S  E   E  E   S  E     E.  S E  S S S E  E  E  S E   
----------------------------------------|-------------------------------|
----------------------------------------|-------------------------------|
--10-----10---------------10--L-----10--|--9-----9-----------9--L----9--|
-------------10-10-10-10---------10-----|-----------9-9-9-9--------9----|


           |-3-|       |-3|                   |--3--|         |-3-|      
  E.  S E  S S S E  E  E  S E      E.  S  E   S  S  S  E   E  E   S  E   
-------------------------------|----------------------------------------|
-------------------------------|----------------------------------------|
--9-----9-----------9--L----9--|--10-----10---------------10--L-----10--|
-----------9-9-9-9--------9----|-------------10-10-10-10---------10-----|


              |--3--|                                           
   E.  S  E   S  S  S  E   E   E  E     Q    E  E  E  E  E  E   
-------------------------------------|-------------------------|
-------------------------------------|-------------------------|
--10-----10---------------10---L-----|----------------------2--|
-------------10-10-10-10------10--9--|--5----5--5--5--5--5-----|


  E  E  E  E  E  E  E  E     E  E  E  E  E  E  E  E   
--------------------------|--------------------------|
--------------------------|--------------------------|
--3--2--3--4--5--4--5--4--|--------------------------|
--------------------------|--5--5--5--5--5--5--5--5--|


  E  E  E  E  E  E  E  E     E  E  E  E  E  E  E  E   
--------------------------|--------------------------|
--------------------------|--------------------------|
-----------5--7--7--7--7--|--------------------------|
--5--5--5-----------------|--5--5--5--5--5--5--5--5--|


  E  E  E  E  E  E  E  E     E  E  E  E  E  E  E  E   
--------------------------|--------------------------|
--------------------------|--------------------------|
-----------5--7--7--7--7--|--------------------------|
--5--5--5-----------------|--5--5--5--5--5--5--5--5--|


  E  E  E  E  E  E  E  E     W                   W                  
--------------------------|-------------------|-------------------||
--------------------------|-------------------|-------------------||
--------------------------|-------------------|-------------------||
--5--5--5--5--5--5--5--5--|--5----------------|--L----------------||




Duration Legend
---------------
W - whole
H - half
Q - quarter
E - 8th
S - 16th
T - 32nd
X - 64th
. - note dotted
|-n-|  - n-tuplets


Tablature Legend
----------------
L - tied note
x - dead note
g - grace note
(n) - ghost note
> - accentuded note
NH - natural harmonic
AH - artificial harmonic
TH - tapped harmonic
SH - semi harmonic
PH - pitch harmonic
h - hammer on
p - pull off
b - bend
br - bendRelease
pb - preBend
pbr - preBendRelease
brb - bendReleaseBend
\n/ - tremolo bar dip
\n - tremolo bar dive
-/n - tremolo bar Release up
/n\ - tremolo bar inverted dip
/n - tremolo bar return
-\n - tremolo bar Release down
S - shift slide
s - legato slide
/ -  slide into from below or out of upwards
\ -  slide into from above or out of downwards
~ - vibrato
W - wide vibrato
tr - trill
TP - tremolo picking
T - tapping
S - slap
P - pop
< - fade in
^ - brush up
v - brush down
comments
print report bad tab
1 comment total.
0 reply
lilstotty wrote on January 13 2016, 06:22 pm

I'm sorry, but what is a tied note? How do you play it?

I want to post or [tab]
guest
You may want to rate the tab now too:
select rating
Please do not post tabs as comments. Select "correction" instead!