Oops, an error
Loading. Please wait.
We have an official White Rabbit tab made by UG professional guitarists. Check out the tab »
×
6,746 views 9 this week
3 commentsread comments
1 2 3 4 5
x 3
add to favorites
launch autoscroll
font size
0
reset
how to read this tab
guitar tuner
backing track
0:00
0:00
×
Best way to learn
"White Rabbit"
Autoscroll
slow
fast
+/-
esc
set tempo
stop
Author
Difficulty
  follow
novice
Guitar1.
Play F#5 och G5


Guitar2. play solo1.
E--------------------------------------------------------------------------------------------------------------------------|
b--------------------------------------------------------------------------------------------------------------------------|
g--------------9-10-------10h(12)-10---------------------------------------------------------------------------------------|
d-----------8-----------------------13-12--10/8-----9----------------------------------------------------------------------|
a10---------10-11--------------------------------------10-----10-11----------------10-11p10--------------------------------|
e ---10h11-----------------------------------------------------------11-10---10-11---------11-10-8-10-11-10-8h10p86-8-6-4--|

Gitarr 1. bridge.
e -7----7-----7----7----6----6----6----6            -2----2----2----2----2----2----2----2--|
b -9----9-----9----9----5----5----5----5            -2----2----2----2----2----2----2----2--|
g -9----9-----9----9----5----5----5----5     x2    -3----3----3----3----3----3----3----3---|
d ---------------------------------------           ---------------------------------------|
a ---------------------------------------           ---------------------------------------|
e ------------------------------------              ---------------------------------------|

Gitarr 1. Vers 3.

e ----2----2----2----2----3----3----3----3--|
b ----2----2----2----2----3----3----3----4--|
g ----3----3----3----3----4----4----4----4--| x2
d ------------------------------------------|
a ------------------------------------------|
e ------------------------------------------|


gitarr 1. chorus/outro
e --5----5----8----10----5----5----5----4----5----5----5----4----5----5----5--|
b --5----5----8----10----5----5----5----5----5----5----5----5----5----5----5--|
g --6----6----9----11----6----6----6----4----6----6----6----4----6----6----6--|
d ----------------------------------------------------------------------------|
a ----------------------------------------------------------------------------|
e ----------------------------------------------------------------------------|


F#5                             G5
One pill makes you larger, and one pill makes you small
        F#5               '                   G5
And the ones that mother gives you, don't do anything at all
       A5   C5         D5      A5        A5
Go ask Alice, when shes ten feet tall.


F#5                                     G5
And if you go chasing rabbits, and you know you're going to fall
           F#5                           G5
Tell 'em a hookah-smoking Caterpiller has given you the call
     A5    C5    D5          A5        A5
Call Alice, when she was just small.


F5                                    A5
When men on the chessboard get up and tell you where to go,
           F5                                      A5
And you've just had some kind of mushroom, and your mind is moving(?) ???
       F#5                   F#5
Go ask Alice, I think she'll know.


     F#5                        G5
When logic and proportion have fallen slightly dead,
        F#5                                       G5
And the White Knight is talking backwards, and the Red Queens off her head,
  A5    C5        D5        A5    E5        A5    E5        A5      A5
Remember what the Doormouse said - Keep your head, Keep your head
Suggest correction
Give kudos to tab author, rate the tab!
1 2 3 4 5
comments
print report bad tab
3 comments total.
0 reply
deathbat411 382 Oct 10, 2006 12:43 PM

lyrics and intro are off

0 reply
dandhjohn 1,058 Apr 04, 2009 05:17 AM

Wrong Key. Should be in F#, not G

0 reply
paranoid70 51 Aug 08, 2009 07:54 AM

I am pretty sure the "When the men on the Chessboard" part should be E not F.

guest
You may want to rate the tab now too:
select rating
Wanna post a correction for this tab? Suggest correction