Oops, an error
Loading. Please wait.

White Rabbit Tab

version 4
version 4

Whole song

Interactive

147,008 views 225 this week
26 commentsread comments
1 2 3 4 5
x 95
add to favorites
launch autoscroll
font size
0
reset
how to read this tab
guitar tuner
×
Best way to learn
"White Rabbit"
Autoscroll
slow
fast
+/-
esc
set tempo
stop
Author
Difficulty
Jefferson Airplane
White Rabbit
Tuning:Standard

[Intro]
bass (converted to guitar)
e|----------------------------------------------|
B|----------------------------------------------|
G|----------------------------------------------|
D|----------------------------------------------|
A|----------------------------------------------|
E|2-2-2p1-2-1/2-2-2p1-2-2/3-3-3p2-3-2/3-3-3p2-3-|

e|--------------------------------------------------------------------------|
B|-----------------7h8p7----------------------------------------------------|
G|--------------8/9-----9-7\6-4\2-3-----------------------------------------|
D|---------------------------------4-4h5p4-------4-5-4----------------------|
A|-9-----9h10/12--------------------------5-4-4-5-----5-4-2/4-5-4-2-4-2-4p2-|
E|---9h10-------------------------------------------------------------------|

e|--------|
B|--------|
G|--------|
D|--------|
A|-2-1----|
E|----3-2-|

[Verse 1]
e|-2-2--2-2-2--2-2--2-2-2--3-3--3--3-3--3-3--3-3-3-|
B|-2-2--2-2-2--2-2--2-2-2--3-3--3--3-3--3-3--3-3-3-|
G|-3-3--3-3-3--3-3--3-3-3--4-4--4--4-4--4-4--4-4-4-|
D|-4-4--4-4-4--4-4--4-4-4--5-5--5--5-5--5-5--5-5-5-|
A|-4-4--4-4-4--4-4--4-4-4--5-5--5--5-5--5-5--5-5-5-|
E|-2-2--2-2-2--2-2--2-2-2--3-3--3--3-3--3-3--3-3-3-|(x2)

[Chorus]
e|-5-5-5-5-5-5-5-8--10-5---------------------------|
B|-5-5-5-5-5-5-5-8--10-5---------------------------|
G|-6-6-6-6-6-6-6-9--11-6--1-1--1-1--1--1-1--1-1--1-|
D|-7-7-7-7-7-7-7-10-12-7--2-2--2-2--2--2-2--2-2--2-|
A|-7-7-7-7-7-7-7-10-12-7--2-2--2-2--2--2-2--2-2--2-|
E|-5-5-5-5-5-5-5-8--10-5---------------------------|

[Verse 1]
e|-2-2--2-2-2--2-2--2-2-2--3-3--3--3-3--3-3--3-3-3-|
B|-2-2--2-2-2--2-2--2-2-2--3-3--3--3-3--3-3--3-3-3-|
G|-3-3--3-3-3--3-3--3-3-3--4-4--4--4-4--4-4--4-4-4-|
D|-4-4--4-4-4--4-4--4-4-4--5-5--5--5-5--5-5--5-5-5-|
A|-4-4--4-4-4--4-4--4-4-4--5-5--5--5-5--5-5--5-5-5-|
E|-2-2--2-2-2--2-2--2-2-2--3-3--3--3-3--3-3--3-3-3-|(x2)

[Chorus]
e|-5-5-5-5-5-5-5-8--10-5---------------------------|
B|-5-5-5-5-5-5-5-8--10-5---------------------------|
G|-6-6-6-6-6-6-6-9--11-6--1-1--1-1--1--1-1--1-1--1-|
D|-7-7-7-7-7-7-7-10-12-7--2-2--2-2--2--2-2--2-2--2-|
A|-7-7-7-7-7-7-7-10-12-7--2-2--2-2--2--2-2--2-2--2-|
E|-5-5-5-5-5-5-5-8--10-5---------------------------|

[Verse 3]
e|-2-2-2-2--3-3-3-3--------------------2----------------------------|
B|-2-2-2-2------------2--2-2-2-2-2-2-1-3-2--2-2-2-2---------2-2-2-2-|
G|-3-3-3-3---------x2-2--2-2-2-2-2-2---2-2--2-2-2-2-1-1-1-1-2-2-2-2-|
D|-4-4-4-4------------2--2-2-2-2-2-2-2---2--2-2-2-2-2-2-2-2-2-2-2-2-|
A|----------2-2-2-2------------------3--------------2-2-2-2---------|
E|----------3-3-3-3-------------------------------------------------|

[Outro]
e|------|
B|------|
G|-1--2-|
D|-2--2-|
A|-2--2-|
E|------|

************************************

| p  Pull-off
| /  Slide up
| h  Hammer-on
| \  Slide down
| x  Dead note

************************************
Suggest correction
comments
print report bad tab
26 comments total. Showing first comments.
0 reply
shugo449 530 Oct 12, 2006 05:23 PM

herd u play it its good

0 reply
steroidabuse 10 Oct 29, 2006 06:29 AM

good job, i think this tab sounds the best out of all the other tabs

0 reply
shugo449 530 Oct 30, 2006 04:52 AM

A REAL PERSON SAID THAT!!!

guest
You may want to rate the tab now too:
select rating
Wanna post a correction for this tab? Suggest correction