Oops, an error
Loading. Please wait.

Light The Sky On Fire bass

version 1
version 1

Whole song

  • Based on the extended cut shown on the Star Wars H... Show more

Interactive

22 views 1 this week
no commentswrite comment
1 2 3 4 5
3 more votes to show rating
add to favorites
×
Save as Personal and add changes to this tab that will be seen only by you. Learn more ›
×
You can save this tab as Personal to edit and correct it or add notes. All changes will be seen only by you. Learn more »
launch autoscroll
font size
0
reset
guitar tuner
edit
Autoscroll
slow
fast
+/-
esc
set tempo
stop
About this tab version
Based on the extended cut shown on the Star Wars Holiday Special. In drop D to take advantage of the extended range. Was this info helpful? Yes No
Artist:Jefferson Starship
Song:Light the Sky on Fire
As seen on the Star Wars Holiday Special
Tempo:~160



[Intro] (Copied from outro, only on extended cuts

G|----------------|
D|----------------|
A|----------------|
D|0---------------|


[Pre Verse] (
(Clean Guitar Comes in)


[Verse] (Vocals Enter)

G|----------------|----------------|----------------|----------------|
D|0---------------|----------------|----------------|----------------|
A|----------------|----------------|----------------|----------------|
D|----------------|----------------|----------------|----------------|

G|----------------|----------------|----------------|----------------|
D|0---------------|3---------------|2---------------|3---------------|
A|----------------|----------------|----------------|----------------| x2
D|----------------|----------------|----------------|----------------|

G|----------------|----------------|----------------|----------------|
D|0---------------|3---------------|--2-2-2-2-2-2-2-|--0-3-5-5-3-0-0-|
A|----------------|----------------|----------------|----------------|
D|----------------|----------------|----------------|----------------|


[Chorus]

G|----------------|----------------|----------------|----------------|
D|----------------|----------------|3-5-5-5-5-5-5-3-|--0-3-5-5-3-0-0-|
A|5-5-5-5-5-5-5-5-|5-5-5-5-5-5-5-5-|----------------|----------------| x4
D|----------------|----------------|----------------|----------------|


[Pre Verse]

G|----------------|----------------|----------------|----------------|
D|----------------|3-3-------------|----------------|----------------|
A|5-5-5-5-5-5-5-5-|----------------|----------------|----------------|
D|----------------|----------------|----------------|----------------|


[Verse]

G|----------------|----------------|----------------|----------------|
D|0---------------|3---------------|2---------------|3---------------|
A|----------------|----------------|----------------|----------------| x2
D|----------------|----------------|----------------|----------------|

G|----------------|----------------|----------------|----------------|
D|0---------------|3---------------|--2-2-2-2-2-2-2-|--0-3-5-5-3-0-0-|
A|----------------|----------------|----------------|----------------|
D|----------------|----------------|----------------|----------------|


[Chorus]

G|----------------|----------------|----------------|----------------|
D|----------------|----------------|3-5-5-5-5-5-5-3-|--0-3-5-5-3-0-0-|
A|5-5-5-5-5-5-5-5-|5-5-5-5-5-5-5-5-|----------------|----------------| x4
D|----------------|----------------|----------------|----------------|


[Bridge]

G|----------------|----------------|----------------|----------------|
D|----------------|----------------|----------------|----------------|
A|----------------|----------------|----------------|----------------|
D|0-----------0-0-|----------------|3-----------3-3-|----------------|
                                                                       x2
G|----------------|----------------|----------------|----------------|
D|----------------|----------------|----------------|----------------|
A|----------------|----------------|0-------0-------|--------0-------|
D|5-----------5-5-|----------------|----------------|2---------------|


G|----------------|----------------|----------------|----------------|
D|----------------|----------------|----------------|----------------|
A|----------------|----------------|----------------|----------------|
D|0-----------0-0-|----------------|3-----------3-3-|----------------|


G|----------------|----------------|----------------|----------------|
D|----------------|----------------|0-0-0-0-0-0-0-0-|0---------------|
A|0-0-0-0-0-0-0-0-|0---------------|----------------|----------------|
D|----------------|----------------|----------------|----------------|

G|----------------|----------------|----------------|----------------|
D|----------------|----------------|0-0-0-0-0-0-0-0-|--0-3-5-5-3-0-0-|
A|0-0-0-0-0-0-0-0-|0---------------|----------------|----------------|
D|----------------|----------------|----------------|----------------|


[Solo]

G|--------5h7-----|--------5h7-----|--------5h7-----|----------------|
D|0-0-0-----------|0-0-0-----------|0-0-0-----------|--0-3-5-5-3-0-0-|
A|----------------|----------------|----------------|----------------| x2
D|----------------|----------------|----------------|----------------|


G|----------------|----------------|----------------|----------------|
D|----------------|----------------|3-5-5-5-5-5-5-3-|--0-3-5-5-3-0-0-|
A|5-5-5-5-5-5-5-5-|5-5-5-5-5-5-5-5-|----------------|----------------| x2
D|----------------|----------------|----------------|----------------|


G|------5-7-7-7-7-|5g7-7-5g7-7-7-5-----|----------------|----------------|
D|----7-----------|----------------7-6-|3-5-5-5-5-5-5-3-|--0-3-5-5-3-0-0-|
A|5-5-------------|--------------------|----------------|----------------|
D|----------------|--------------------|----------------|----------------|

G|----------------|----------------|----------------|----------------|
D|----------------|------------3-4-|3-5-5-5-5-5-5-3-|--0-3-5-5-3-0-0-|
A|5-5-5-5-5-5-5-5-|3-4-5-5-3-5-----|----------------|----------------|
D|----------------|----------------|----------------|----------------|


[Chorus]

G|----------------|----------------|----------------|----------------|
D|----------------|----------------|3-5-5-5-5-5-5-3-|--0-3-5-5-3-0-0-|
A|5-5-5-5-5-5-5-5-|5-5-5-5-5-5-5-5-|----------------|----------------| x4
D|----------------|----------------|----------------|----------------|


[Pre Verse]

G|----------------|----------------|----------------|----------------|
D|----------------|3-3-------------|----------------|----------------|
A|5-5-5-5-5-5-5-5-|----------------|----------------|----------------|
D|----------------|----------------|----------------|----------------|


[Verse]

G|----------------|----------------|----------------|----------------|
D|0---------------|3---------------|2---------------|3-----------5---|
A|----------------|----------------|----------------|----------------| x2
D|----------------|----------------|----------------|----------------|

G|----------------|----------------|----------------|----------------|
D|0---------------|3---------------|--2-2-2-2-2-2-2-|--0-3-5-5-3-0-0-|
A|----------------|----------------|----------------|----------------|
D|----------------|----------------|----------------|----------------|


[Outro Chorus]

G|----------------|----------------|----------------|----------------|
D|----------------|----------------|----------------|--0-3-5-5-3-0-0-|
A|----------------|----------------|----------------|----------------| x4
D|----------------|----------------|----------------|----------------|

[Outro]

G|----------------|----------------|----------------|----------------|
D|----------------|----------------|----------------|--0-3-5-5-3-0-0-|
A|----------------|----------------|----------------|----------------|
D|----------------|----------------|----------------|----------------|

G|----------------|----------------|----------------|----------------|
D|----------------|----------------|----------------|--0-3-5-5-3-0-0-|
A|----------------|----------------|----------1-1-2-|----------------|
D|----------0-3-5-|----------0-3-5-|----------------|----------------|

G|----------------|----------------|----------------|----------------|
D|----------------|----------------|----------------|--0-3-5-5-3-0-0-|
A|----------------|----------------|----------------|----------------|
D|----------------|----------------|----------------|----------------|

G|----------------|----------------|----------------|----------------|
D|----------------|----------------|----------------|--0-3-5-5-3-0---|
A|----------------|----------1-2-3-|----------------|----------------|
D|----------0-3-5-|----------------|----------------|--------------0-|

[Outro Fade Out]

G|----------------|
D|----------------|
A|----------------| Held from last bar, fade to end.
D|0---------------|


************************************

| g   Grace note
| h   Hammer-on
| p   Pull-off
| /   Slide up
| \   Slide down

************************************

            
            
Suggest correction
Creating personal tab
Creating personal tab
You can edit any tab online and save it as your Personal.

You can edit, replace or remove any tab part or add personal notes – all changes will be seen only by you.

Personal tabs can be accessed anytime from any device, even offline.
Learn more »
Give kudos to tab author, rate the tab!
1 2 3 4 5
comments
print report bad tab
guest
You may want to rate the tab now too:
select rating
Wanna post a correction for this tab? Suggest correction