Oops, an error
Loading. Please wait.

Nothings Gonna Stop Us Now Bass Tab

1,028 views 3 this week
no commentswrite comment
1 2 3 4 5
please rate
add to favorites
launch autoscroll
font size
0
reset
guitar tuner
Autoscroll
slow
fast
+/-
esc
set tempo
stop
Help us to improve Ultimate-Guitar.com Take our survey!
×
Author
Nothing’s Gonna Stop Us Now
Jefferson Starship
Tabbed by: avill616@yahoo.com

Intro 
G|-----------------------------------------------------------------|
D|-----------------------------------------------------------------|
A|-----------------1-1-1-1-1-1-1-1-2-2-2-2-2-2-2-2-4-4-4-4-4-4-4-4-|2x
E|-2-2-2-2-2-2-2-2-------------------------------------------------|

Verse 
G|-----------------------------------------------------------------|
D|-----------------------------------------------------------------|
A|-----------------1-1-1-1-1-1-1-1-2-2-2-2-2-2-2-2-4-4-4-4-4-4-4-4-|4x
E|-2-2-2-2-2-2-2-2-------------------------------------------------|

G|-----------------|
D|-----------------|
A|-4-4-4-4-4-4-4-4-|
E|-----------------|

Chorus1 
G|---------------------------------------------4-------------------|
D|-------------------------------------------4--4------------------|
A|-----------------1-1-1-1-1-1-1-1-2-2-2-2-2-------4-4-4-4-4-4-4-4-|4x
E|-2-2-2-2-2-2-2-2-------------------------------------------------|

G|-----------------|
D|-----------------|
A|-7-7-7-7-7-7-7-7-|
E|-----------------|

Repeat verse

Chorus2 
G|---------------------------------------------4-------------------|
D|-------------------------------------------4--4------------------|
A|-----------------1-1-1-1-1-1-1-1-2-2-2-2-2-------4-4-4-4-4-4-4-4-|4x
E|-2-2-2-2-2-2-2-2-------------------------------------------------|

Bridge 
G|-----------------------------------------------------------------|
D|-----------------------------------------------------------------|
A|-----------------1-1-1-1-1-1-1-1-2-2-2-2-2-2-2-2---------4-4-4-4-|
E|-2-2-2-2-2-2-2-2---------------------------------4-4-4-4---------|

G|-----------------------------------------------------------------|
D|-----------------------------------------------------------------|
A|-----------------1-1-1-1-1-1-1-1-2-2-2-2-2-2-2-2-----------------|
E|-2-2-2-2-2-2-2-2---------------------------------4-4-4-4-4-4-4-4-|

G|-------------------------------------|
D|-------------------------------------|
A|-4-4-4-4-4-4-4-4-4-4-4-4--5--5--5--5-|
E|-------------------------------------|


Adlib
G|---------------------------------------------5------------------|
D|-------------------------------------------5--5-----------------|
A|---------------------------------3-3-3-3-3------5-5-5-5-5-5-5-5-|2x
E|-3-3-3-3-3-3-3-3-7-7-7-7-7-7-7-7--------------------------------|

Chorus3
G|---------------------------------------------5------------------|
D|-------------------------------------------5--5-----------------|
A|---------------------------------3-3-3-3-3------5-5-5-5-5-5-5-5-|till end
E|-3-3-3-3-3-3-3-3-7-7-7-7-7-7-7-7--------------------------------|
Suggest correction
Give kudos to tab author, rate the tab!
1 2 3 4 5
comments
print report bad tab
guest
You may want to rate the tab now too:
select rating
Please do not post tabs as comments. Select "correction" instead!