Oops, an error
Loading. Please wait.

Bakit Wala Ka Chords

version 2
version 2

Whole song

24 views 1 this week
1 commentread comment
1 2 3 4 5
please rate
add to favorites
launch autoscroll
font size
0
reset
transpose
0
reset
display chords
guitar tuner
Autoscroll
slow
fast
+/-
esc
set tempo
stop
Help us to improve Ultimate-Guitar.com Take our survey!
×
Author
Intro:
e||-9-12--------------9-10-9----|
B||-------10-10-12-12-----------|
G||-----------------------------|
D||-----------------------------|
A||-----------------------------|
E||-----------------------------|

e||--9-12------------------------|
B||------10-10-12-12-10-10-------|
G||------------------------------|
D||------------------------------|
A||------------------------------|
E||------------------------------|


CHORUS
C# Bbm F# G#
Bakit ba ikaw ay nawala
C# Bbm F# G#
Bakit ba ikaw ay wala

I.
C#
Tayo ay nagkita
Bbm
dyan lng sa tabe-tabe
F#
Para lng akong loko
G#
na pauli-uli

C#
Aking mahal ikaw lng talaga
Bbm
ang aking minamahal
F#
Pagkalipas lng ng oras
G#
akoy di narin magtatagal

(REPEAT Chorus)

II.
Pagkatapos ng klase
sayo ay tumabi
Tumingin sayong mukha
katotohanan ay nakita
Ako ay nagbago
para lng sayo
Ako ay nagmahal
dahil din sayo

(REPEAT CHORUS 2×)

»Strum Once«
C#
Bakit nga ba
Bbm
di tayo nagkatuluyan
F#
Yun ba ay dahil sa
G#
Hindi kita niligawan

(Repeat Chorus 2×)

G(fades)
Suggest correction
Give kudos to tab author, rate the tab!
1 2 3 4 5
comments
print report bad tab
1 comment total.
0 reply
Master Jefford 43 wrote on July 14 2014, 06:27 am

http://www.facebook.com/jeffordalba
http://www.twitter.com/albajefford
jeffordalba@gmail.com

Like my Pages on Facebook:
·Jefford Alba_Official
·Jefford Guitar Center
·Obras de Arte de Inspiracion del Maestro Alba
·Alba Brothers Music Studio

guest
You may want to rate the tab now too:
select rating
Please do not post tabs as comments. Select "correction" instead!