Oops, an error
Loading. Please wait.

Anxiety Attack tab

4,331 views 18 this week
1 commentread comment
1 2 3 4 5
x 3
add to favorites
×
Save as Personal and add changes to this tab that will be seen only by you. Learn more ›
×
You can save this tab as Personal to edit and correct it or add notes. All changes will be seen only by you. Learn more »
launch autoscroll
font size
0
reset
how to read this tab
guitar tuner
edit
Autoscroll
slow
fast
+/-
esc
set tempo
stop
Author
Difficulty
Anxiety attack by jeffrey lewis
Simple song, this pattern through the verse

verse

-------------------------------|
-------------------------------|
-------------------------------|
---------0------------0--------|
------2-----2------3---3-------|
---3------------3--------------|

chorus

--------------------|
--------------------|
--------------------|
---------0----------|
------2----2--------|
---3----------------|    X4

-------------------|
-------------------|
-------------------|
---------0---------|
------0----0-------|
---1---------------|   X4

Then move the same pattern onto the A string for the chorus
Suggest correction
Creating personal tab
Creating personal tab
You can edit any tab online and save it as your Personal.

You can edit, replace or remove any tab part or add personal notes – all changes will be seen only by you.

Personal tabs can be accessed anytime from any device, even offline.
Learn more »
Give kudos to tab author, rate the tab!
1 2 3 4 5
comments
print report bad tab
1 comment total.
+1 reply
cinnamonclove 76 Apr 22, 2015 01:37 PM

The beginning is almost bang on - the only difference is that I think that there's a 2 instead of a 0 on the D for the second pattern:

e|---------------------------------------------------------------------------|
B|---------------------------------------------------------------------------|
G|---------------------------------------------------------------------------|
D|---------0-----------2-----------------------------------------------------|
A|------2-----2-----3-----3--------------------------------------------------|
E|---3-----------3-----------------------------------------------------------|

guest
You may want to rate the tab now too:
select rating
Wanna post a correction for this tab? Suggest correction