Oops, an error
Loading. Please wait.

Krongu Green Slime tab

1,043 views 3 this week
no commentswrite comment
1 2 3 4 5
1 last vote to show rating
add to favorites
×
Save as Personal and add changes to this tab that will be seen only by you. Learn more ›
×
You can save this tab as Personal to edit and correct it or add notes. All changes will be seen only by you. Learn more »
launch autoscroll
font size
0
reset
how to read this tab
guitar tuner
edit
Autoscroll
slow
fast
+/-
esc
set tempo
stop
Author
Artist: Jeffrey Lewis
Title: Krongu Green Slime
Album: A Turn In The Dream-Songs (2011)

Tabbed by: iylsgia
Email: rg@iylsgia.com

Tuning: Standard

The whole song is just two chords: G C C G

The picking pattern throughout the song is:

   G                      C
|-------3---------3------------0---------0-------|
|----0----0-----0---0---0---1----1-----1---1---1-|
|----0------0---------0-----0------0---------0---|
|------------------------------------2-----------|
|-------------2-----------3----------------------|
|--3---------------------------------------------|


  C                      G
|------0---------0------------3---------3--------|
|---1----1-----1---1---1---0----0-----0---0---0--|
|---0------0---------0-----0------0---------0----|
|------------2-----------------------------------|
|-3---------------------------------2------------|
|------------------------3-----------------------|


The pattern varies only very slightly throughout the song. 
Occasionally the 3rd is played with a hammer-on, like this:

   G                        C
|-------3-----------3------------0-----------0-------|
|----0----0-------0---0---0---1----1-------1---1---1-|
|----0------0-----------0-----0------0-----------0---|
|--------------------------------------0h2-----------|
|-------------0h2-----------3------------------------|
|--3-------------------------------------------------|


And also like this on a couple of verses, for variation:

   G                      C
|-------3----------3-----------0----------0------|
|----0----0-----0----0------1----1-----1----1----|
|----0------0---0------0----0------0---0------0--|
|------------------------------------2-----------|
|-------------2-----------3----------------------|
|--3---------------------------------------------|


Intro: G C C G (x2)

G                       C    C                        G
 Before the land before time, there was a time before land
G                        C     C                   G
 when the world was just slime, and Krongu was the brand.
G                 C      C                     G
 Yes Krongu green sludge, was the most popular item
G                             C       C                G
 there might have been better sludges, but no-one ever tried 'em.

Bought and sold by the platter, green slime by Krongu
it was the most popular matter, it was the most popular hue
it was from sea to sea, it was from dawn to dark,
it had thoroughly cornered all of the market.

All other colours were in absentia back in BC ten zillion,
there was no puce or magenta or chartreuse or cerulean,
no red, yellow or blue, well to put it properly,
there was green slime by Krongu, it was a total monopoly.

If you'd bought stock in there oh for a while it would have sky-rocketed
it would have been mucho dinero that you would have stood to have pocketed
but if you missed out on that ship then you have my sympathies kid
cos Krongu's value dipped as those slimy seas did.

And land started to pop-up in dribs and drabs at a time,
and creatures started to hop-up from the oceans of slime,
Krongu's grip started slipping with this slew of innovations,
there was now competition from some new corporations.

There were so many style, and it all seemed so nice
these miles of aisles of life's merchandise.
Some tiny, some giant, some could chirp some could buzz,
rebellious or compliant, with scales, feathers or fuzz.

Some were stupid as turnips, some were lowly as corals,
some had high-minded concepts, dreams and ideas and morals.
Some were fanged, some were toothless, some were sweet, some were salty,
they were popular but useless, they were pretty but faulty.

Yes I guess I got fleeced, I got baited and hooked,
by each dream and each beast that didn't work as good as it looked,
'cos each one crapped out and broke. Built to last? forget it,
get a refund? that's a joke, you can't even exchange for store credit.

Someone do some muck-raking, an expose, a news tip-off,
this whole store is a heartbreaking, fraudulent rip-off.
Forget friends, family, dreams, hearts, trees, birds, dogs, snakes,
forget you, forget me, it's just cheap stuff that breaks.

And in the land after time, and the time after land,
they'll just roll-out the slime in the most trusted brand.
When push comes to shove it'll be Krongu. No dismissals, no disbarments.
No more tears, no more love, no more crew of disposable varmints.

'Cos before the land before time, there was a time before land,
when the world was just slime and Krongu was the brand.
Yes Krongu green sludge, was the popular item,
there might have been better sludges, but no-one ever tried 'em.

Outro: G C C G (x2)

Finish on a G (strum)
Suggest correction
Creating personal tab
Creating personal tab
You can edit any tab online and save it as your Personal.

You can edit, replace or remove any tab part or add personal notes – all changes will be seen only by you.

Personal tabs can be accessed anytime from any device, even offline.
Learn more »
Give kudos to tab author, rate the tab!
1 2 3 4 5
comments
print report bad tab
guest
You may want to rate the tab now too:
select rating
Wanna post a correction for this tab? Suggest correction