Oops, an error
Loading. Please wait.

Dream Girl Bass Tab

892 views 1 this week
no commentswrite comment
1 2 3 4 5
please rate
add to favorites
launch autoscroll
font size
0
reset
guitar tuner
Tab Pro tools
  • play this tab
  • loop segment
  • change instrument
  • show fretboard
  • metronome
×
Best way to learn
"Dream Girl"
Autoscroll
slow
fast
+/-
esc
set tempo
stop
---------------------------------------------------------------------------
                 Dream Girl - Jeffries Fan Club
---------------------------------------------------------------------------

Tabbed By:Billy

*=mute string <=let string ring

Intro
G|-------------------------------|
D|-------------------------------|
A|-------------------------------|
E|5555550455555504555555045<<<<--|

Second Intro play 2x 2nd time with second ending {  FIRST ENDING  }
G|----------------------------------------------------------------|
D|----------------------------------------------------------------|
A|----------------5555550455555504----------------7777770677777706|
E|5555550455555504----------------5555550455555504----------------|

Second Ending to second Intro
G|----------|
D|----------|
A|777777067*|
E|----------|

Verse
G|-----------454-------------676--|
D|---454--047---74---454---69---96| 
A|047---74--------047---747-------|
E|--------------------------------|
                                                                              
                   Chorus-play once w/ 1st ending and once w/ 2nd   
playing the chorous once with the 1st ending and
and once with the 2nd is "one time through"      1st     2nd
G|----------------------------------------------|-----|------|
D|-------------0--4-7-0--4-7-----------------6-9|---69|0--4-7|
A|0--4-7-0--4-7-------------0--4-7-0--4-7-7-----|7----|------|
E|----------------------------------------------|-----|------|


part with the guitar solo play this then play chorus slowly
G|-------------|
D|-------------|
A|0*--0*--0<<<<|
E|-------------|

Bridge-listen to the song for timing cuz the bridge comes in at a weird part 
of the chorus
G|------------------------------------------------------------|
D|0-000-------------------6--9-0--4--7---------0--4--7-0--4--7|
A|------4-3-2--0--4--7-7---------------0--4--7----------------|
E|------------------------------------------------------------|

Outro Chorus-play after bridge one time through then back to verse and 
regular chorus onr time through then on to tne outro
G|--------------------------------------------------------------------|
D|------------------------------------------------------------7*-7067*|
A|------------------------------------5*-5045*-504--------------------|
E|-5*-5045*-5045*-5045<<<<5*-5045*-504------------5*-5045*-504--------|

Outro
G|-----------------------------|
D|-----------------------------|
A|----------------------------0|
E|555-333-222-111-0*-0*-0-2-4--|                         

Song order:
Intro 1x
Second Intro 2x
Verse 2x
Chorus 1x
Verse 4x
Chorus 1x
Solo part 1x
Chorus 1x
Bridge 1x
Outro Chorus 1x
Verse 1x
Chorus 1x
Outro 1x
===========================================================================
comments
We did not receive enough feedback on this tab! Please rate:
print report bad tab
1 2 3 4 5
I want to post or [tab]
guest
You may want to rate the tab now too:
select rating
Please do not post tabs as comments. Select "correction" instead!