Oops, an error
Loading. Please wait.

Shes So Cool Tab

155 views 1 this week
no commentswrite comment
1 2 3 4 5
3 more votes to show rating
add to favorites
launch autoscroll
font size
0
reset
how to read this tab
guitar tuner
Autoscroll
slow
fast
+/-
esc
set tempo
stop
Help us to improve Ultimate-Guitar.com Take our survey!
×
-------------------------------------------------------------------------------
                             SHE'S SO COOL - Jeffries Fan Club
-------------------------------------------------------------------------------

By: Matthew Hazlehurst (Atarisdude15@aol.com)

PM~ - Palm Mute
 ~  - Let ring

Intro
e|---------------------------------------------------------------------------|
B|---------------------------------------------------------------------------|
G|---8~--8~------------------------------------------------------------------|
D|---8~--8~--8~--------------------------------------------------------------|
A|---6~--6~--8~--------------------------------------------------------------|
E|-----------6~--------------------------------------------------------------|

Intro 2 (Upstrokes)
e|---6---4---6---4-----------------------------------------------------------|
B|---8---4---6---4-----------------------------------------------------------|
G|---8---5---7---5-----------------------------------------------------------|
D|---8---6---8---6-----------------------------------------------------------|
A|---6---6---8---6-----------------------------------------------------------|
E|---6---4---6---4-----------------------------------------------------------|
                                                       (On last time do this)
Verse (Upstrokes) (Slower for 3x then speed up for 2x)  (Normal strumming)
e|---6---4---6---4------------------------------------|---4---6--------------|
B|---8---4---6---4------------------------------------|---4---6--------------|
G|---8---5---7---5------------------------------------|---5---7--------------|
D|---8---6---8---6------------------------------------|---6---8--------------|
A|---6---6---8---6------------------------------------|---6---8--------------|
E|---6---4---6---4------------------------------------|---4---6--------------|

Chorus
e|---------------------------------------------------------------------------|
B|---------------------------------------------------------------------------|
G|---8-8-8-8-------8-8-8-8-------8-8-8-8-------------------------------------|
D|---8-8-8-8---6---8-8-8-8---8---8-8-8-8---6---6-6-6---8---6-6-6---8---------|
A|---6-6-6-6---6---6-6-6-6---8---6-6-6-6---6---6-6-6---8---6-6-6---8---------|
E|-------------4-------------6-------------4---4-4-4---6---4-4-4---6---------|

Interlude
e|---------------------------------------------------------------------------|
B|---------------------------------------------------------------------------|
G|---------------------------------------------------------------------------|
D|---6-6-6-6-6-6---8-8-8-8-8-8-----------------------------------------------|
A|---6-6-6-6-6-6---8-8-8-8-8-8-----------------------------------------------|
E|---4-4-4-4-4-4---6-6-6-6-6-6-----------------------------------------------|
   PM~ ~ ~ ~     PM~ ~ ~ ~
Ending (Upstrokes)
e|---6---4---6~~~4~~~6~~~----------------------------------------------------|
B|---8---4---6~~~4~~~8~~~----------------------------------------------------|
G|---8---5---7~~~5~~~8~~~----------------------------------------------------|
D|---8---6---8~~~6~~~8~~~----------------------------------------------------|
A|---6---6---8~~~6~~~6~~~----------------------------------------------------|
E|---6---4---6~~~4~~~6~~~----------------------------------------------------|

Order

Intro X1
Intro 2 X4
Verse X5
Chorus X1
Intro 2 X4
Verse X5
Chorus X1
Interlude X3
Solo
Intro X1
Chorus X1
Ending X1

I'm sure that this is right, but if you have any questions or comments please email me.

===============================================================================
Suggest correction
Give kudos to tab author, rate the tab!
1 2 3 4 5
comments
print report bad tab
guest
You may want to rate the tab now too:
select rating
Wanna post a correction for this tab? Suggest correction