Oops, an error
Loading. Please wait.

Why Me Chords

2,000 views 1 this week
no commentswrite comment
1 2 3 4 5
please rate
add to favorites
launch autoscroll
font size
0
reset
transpose
0
reset
simplify chords
display chords
guitar tuner
Autoscroll
slow
fast
+/-
esc
set tempo
stop
Help us to improve Ultimate-Guitar.com Take our survey!
×
Author
-----------------------------------------------------------------------------
                             Why Me - Jehro
-----------------------------------------------------------------------------
Tabbed by: waynebb

Tuning: standard

The whole song goes : A A D E 

    A           A           D           E
e|------------------------------------------------|
B|-----5-x-5-------5-x-5-------7-x-7-------9-x-9--|
G|-----6-x-6-------6-x-6-------7-x-7-------9-x-9--|
D|-----7-x-7-------7-x-7-------7-x-7-------9-x-9--|
A|--------------------------5-----------7---------|
E|--5-----------5---------------------------------|


Except for the bridge : 

    D
e|------------------------------------------------|
B|-----7-x-7-------7-x-7-------7-x-7-------7-x-7--|
G|-----7-x-7-------7-x-7-------7-x-7-------7-x-7--|
D|-----7-x-7-------7-x-7-------7-x-7-------7-x-7--|
A|--5-----------5-----------5-----------5---------|
E|------------------------------------------------|
  But if you put your head upon my

    A
e|------------------------------------------------|
B|-----5-x-5-------5-x-5-------5-x-5--------------|
G|-----6-x-6-------6-x-6-------6-x-6--------------|
D|-----7-x-7-------7-x-7-------7-x-7--------------|
A|------------------------------------------------|
E|--5-----------5-----------5-----------5----6----|
    shoulder

    B
e|------------------------------------------------|
B|-----7-x-7-------7-x-7-------7-x-7-------7-x-7--|
G|-----8-x-8-------8-x-8-------8-x-8-------8-x-8--|
D|-----9-x-9-------9-x-9-------9-x-9-------9-x-9--|
A|------------------------------------------------|
E|--7-----------7-----------7-----------7---------|
                I'm not the kind of man
          
          E    F#m   Bm6
e|------------------------------------------------|
B|--------9----10----12---------------------------|
G|--------9----11----13---------------------------|
D|--------9----11----12---------------------------|
A|------------------------------------------------|
E|------------------------------------------------|
     who's gonna walk away





A     A    D    E
Tell me about it girl
What is this story, babe
That gift can't be taken

Why me
You think that I'm the one for you
I was born with a duffel on my back
Can we lighten up

Why me
I barely do the laundry
And I hate to wake up early
Can we lighten up, girl

Tell me...
Why this love, why this love
Why this love, are you sure that I'm the one
Why this love, that your heart is longing for
Why this love

(Bridge)
D                                  A
But if you put your head upon my shoulder
B                                    E  F#m  Bm6
I'm not the kind of man who's gonna walk away

A   A   D   E
Why me 
Your love is like a fountain
But I will not dare to drink it
Can we lighten up

Tell me...
Why this love, why this love
Why this love, are you sure that I'm the one
Why this love, that your heart is longing for
Why this love

You got that little something
But I know what the feelings do
And you know I'll be good to you
I just live for the open road
But your love is a compliment
That I can't deny

(Bridge)
D                                  A
But if you put your head upon my shoulder
B                                          E  F#m  Bm6
I'm not the kind of man who's gonna walk away


A   A   D   E
Tell me why me (why me) x4
Tell me why you're good to me, good to me, good to me x4

You know it's a feeling  (Ha ha)
A deep feeling   (Ha ha)
It takes two   (Ha ha)
To get sharing  (Ha ha)
It's a feeling,  (Ha ha)
A deep feeling  (Ha ha)
It takes two to get   (Ha ha)
Sharing baby  (Ha ha)

I tell you one day, you're gonna meet a boy
(One day) who's gonna be nice to you
(One day) you'll know what to do
(One day) what your heart tells you to
(One day) you're gonna meet a boy
(One day) who's gonna be nice to you
(One day) you'll know what to do
(One day) what your heart tells you to
(One day) Ohh
(One day) do you really really want me
(One day) do you really really want me
(One day) do you really really want me
(One day)

************************************

| /   slide up
| \   slide down
| h   hammer-on
| p   pull-off
| ~   vibrato
| +   harmonic
| x   Mute note
| b   Bend
| pb  Pre-bend
| br  Bend release
| pbr Pre-bend release
| brb Bend release bend

************************************
Suggest correction
What's this?
You can suggest a correction to this tab. Community and Mods will review your correction and vote to approve or reject it.
comments
We did not receive enough feedback on this tab! Please rate:
print report bad tab
1 2 3 4 5
guest
You may want to rate the tab now too:
select rating
Please do not post tabs as comments. Select "correction" instead!