Oops, an error
Loading. Please wait.

Forevermore tab

by Jei
70 views 1 this week
1 commentread comment
1 2 3 4 5
2 more votes to show rating
add to favorites
×
Save as Personal and add changes to this tab that will be seen only by you. Learn more ›
×
You can save this tab as Personal to edit and correct it or add notes. All changes will be seen only by you. Learn more »
launch autoscroll
font size
0
reset
how to read this tab
guitar tuner
edit
Autoscroll
slow
fast
+/-
esc
set tempo
stop
Author
Difficulty
TITLE: FOREVERMORE
TABBED BY: JEI
Legend: 
/ slide         h hammer
P pull
^ brush up

Intro   
E||------------------0--------------0--|---------------0----------------0----|
B||---------0---0-------0--------0-----|-------0---0-----0-----------0-------|
G||-------1------------------2---------|-----1---------------2---------------|
D||-------------0----------------------|-----------0-------------------------|
A||----2---------------------4---------|--2------------------4---------------|
E||----0-------------------------------|--0----------------------------------|

Verse 1
E||------------------------------------|-------------------------------------|
B||---------0---0------0--2—-4-4/7/5---|----2-0----0-------------------------|
G||-------1---------1------------------|--2-----2---2------4-2-1-----------4-|
D||-------------0---0------------------|--2------2---2--4--------2/4---4-----|
A||----2-------------------------------|----------------2-------------4------|
E||----0-------------------------------|-----------------------------2---2---|

E||------------------------------------|-------------------------------------|
B||---------0---0------0--2—-4-4/7/5---|----2-0----0-------------------------|
G||-------1---------1------------------|--2-----2---2------4-2-1-------------|
D||-------------0---0------------------|--2------2---2--4--------2/4----4----|
A||----2-------------------------------|----------------2--------------4-----|
E||----0-------------------------------|------------------------------2------|

E||------------------------------------|------------------0------------------|
B||------------------------------------|------------------2------------------|
G||-----------------4—6—6/7---6----6---|--4—---6p4--4/2---2------------------|
D||------4/6---6-----------------------|------------------2------------------|
A||---------------------------4--------|--0----------------------------------|
E||---2--------4-----------------------|-------------------------------------|

Chorus 
E||---------0--2----4--4-*---2--4-2----|-0-------0--0--2--4--5-4--2-4-2—-2p0-|
B||---0--2--0-------4--4-T---2---------|-----2------0-----4-------2----------|
G||---1------------------A-------------|---2---2-----------------------------|
D||----------------------P-------------|-2-----------------------------------|
A||---2-------------4----*---2---------|------------2-----4-------2----------|
E||----------------------*-------------|-------------------------------------|

E||-0------0-2--4-5---7-7-*--5--5-*--0-|--4-5-4------------------------------|
B||----2---0----4-----0---T--0----T----|--0-----5-------2--------5/7-5^------|
G||---2-------------------A-------A----|--------------2----2/4---------------|
D||-2---------------------P-------P----|------------2------------------------|
A||--------2----4-----5---*--7----*----|-------------------------------------|
E||-----------------------*-------*----|--5----------------------------------|

E||-----------------------------------|-------------------------------------|
B||-----------------------------------|-------------------------------------|
G||---------4---2—2/1-----------------|-------------------------------------|
D||-------4------------2----4—--4/6---|-4p2--2------------------------------|
A||----2--------------------2---------|------0------------------------------|
E||-----------------------------------|-------------------------------------|

Interlude
E||--------0--2---4-5-4--2---------0--|-0-2-4-5-4-2-----4-5-4---------------|
B||--0--2--0------4------2-----2------|-0---4-----2---4-------5-----4-5-4---|
G||--1------------------------2--2----|---------------------------4-------4-|
D||-------------------------2---------|-------------------------------------|
A||--2------------4------2------------|-2---4-----2-----4-----------2-------|
E||-----------------------------------|-------------------------------------|

E||----------------0-----(5)----------|-------------------------------------|
B||----------2------------------------|-------------------------------------|
G||------2------2---------------------|-------------------------------------|
D||----2---2--------------------------|-------------------------------------|
A||--0--------------------------------|-------------------------------------|
E||-----------------------------------|-------------------------------------|

Verse 2
E||------------------------------------|-------------------------------------|
B||---------0---0------0--2—-4-4/7/5---|----2-0----0-------------------------|
G||-------1---------1------------------|--2-----2---2------4-2-1-----------4-|
D||-------------0---0------------------|--2------2---2--4--------2/4---4-----|
A||----2-------------------------------|----------------2-------------4------|
E||----0-------------------------------|-----------------------------2---2---|

E||------------------------------------|-------------------------------------|
B||-----9---7----------0--2—-4-4/7/5---|----2-0----0-------------------------|
G||------------9----1------------------|--2-----2---2------4-2-1-------------|
D||-----------------0------------------|--2------2---2--4--------2/4----4----|
A||--7---------0-----------------------|----------------2--------------4-----|
E||------------------------------------|------------------------------2------|

E||------------------------------------|------------------0------------------|
B||------------------------------------|------------------2------------------|
G||-----------------4—6—6/7---6----6---|--4—---6p4--4/2---2------------------|
D||------4/6---6-----------------------|------------------2------------------|
A||---------------------------4--------|--0----------------------------------|
E||---2--------4-----------------------|-------------------------------------|

Chorus 
E||---------0--2----4--4-*---2--4-2----|-0-------0--0--2--4--5-4--2-4-2—-2p0-|
B||---0--2--0-------4--4-T---2---------|-----2------0-----4-------2----------|
G||---1------------------A-------------|---2---2-----------------------------|
D||----------------------P-------------|-2-----------------------------------|
A||---2-------------4----*---2---------|------------2-----4-------2----------|
E||----------------------*-------------|-------------------------------------|

E||-0------0-2--4-5---7-7-*--5--5-*--0-|--4-5-4------------------------------|
B||----2---0----4-----0---T--0----T----|--0-----5-------2--------5/7-5^------|
G||---2-------------------A-------A----|--------------2----2/4---------------|
D||-2---------------------P-------P----|------------2------------------------|
A||--------2----4-----5---*--7----*----|-------------------------------------|
E||-----------------------*-------*----|--5----------------------------------|

E||-----------------------------------|-------------------------------------|
B||-----------------------------------|-------------------------------------|
G||---------4---2—2/1-----------------|-------------------------------------|
D||-------4------------2----4—--4/6---|-4p2--2------------------------------|
A||----2--------------------2---------|------0------------------------------|
E||-----------------------------------|-------------------------------------|

Interlude
E||---------0--2--7---7-5----5---5-3--|----3---3-2--0-------------------1h2-|
B||--0--2---0-------7------5---5------|--3---3--------3-------------2h3-----|
G||--1--------------------------------|------------------------1h2----------|
D||-----------------------------------|-------------------2h3---------------|
A||--2------------5----------3--------|----1--------------------------------|
E||-----------------------------------|-------------------------------------|

Bridge
E||--3--2-0---------------------------|-3—3/5---2-----------3-2-3—3/5--3-2--|
B||--3-------3---------3-1-0--1--1--3-|------------3--3---------------------|
G||----------0----0-----------0-------|--------------2--3-------------------|
D||-------------0---0-----------------|-0----------0--------0---------------|
A||--3------------------------3-------|-------------------------------------|
E||----------3------------------------|-------------------------------------|

E||---3-2-3-------0-2--3---5----7-8---|--8/10-------------------------------|
B||-3----------3----------------------|-------------------------------------|
G||-----------------------------------|-------------------------------------|
D||----------0------------------------|-------------------------------------|
A||-0---------------------------------|-------------------------------------|
E||-----------------------------------|-------------------------------------|

Chorus 
E||---------0--2----4--4-*---2--4-2----|-0-------0--0--2--4--5-4--2-4-2—-2p0-|
B||---0--2--0-------4--4-T---2---------|-----2------0-----4-------2----------|
G||---1------------------A-------------|---2---2-----------------------------|
D||----------------------P-------------|-2-----------------------------------|
A||---2-------------4----*---2---------|------------2-----4-------2----------|
E||----------------------*-------------|-------------------------------------|

E||-0------0-2--4-5---7-7-*--5--5-*--0-|--4-5-4------------------------------|
B||----2---0----4-----0---T--0----T----|--0-----5-------2--------5/7-5^------|
G||---2-------------------A-------A----|--------------2----2/4---------------|
D||-2---------------------P-------P----|------------2------------------------|
A||--------2----4-----5---*--7----*----|-------------------------------------|
E||-----------------------*-------*----|--5----------------------------------|

E||-----------------------------------|-------------------------------------|
B||-----------------------------------|-------------------------------------|
G||---------4---2—2/1-----------------|-------------------------------------|
D||-------4------------2----4—--4/6---|-4p2--2------------------------------|
A||----2--------------------2---------|------0------------------------------|
E||-----------------------------------|-------------------------------------|
 

Outro   
E||------------------0--------------0--|---------------0----------------0----|
B||---------0---0-------0--------0-----|-------0---0-----0-----------0-------|
G||-------1------------------2---------|-----1---------------2---------------|
D||-------------0----------------------|-----------0-------------------------|
A||----2---------------------4---------|--2------------------4---------------|
E||----0-------------------------------|--0----------------------------------| 
Suggest correction
Creating personal tab
Creating personal tab
You can edit any tab online and save it as your Personal.

You can edit, replace or remove any tab part or add personal notes – all changes will be seen only by you.

Personal tabs can be accessed anytime from any device, even offline.
Learn more »
Give kudos to tab author, rate the tab!
1 2 3 4 5
comments
print report bad tab
1 comment total.
-1 reply
jethroamador 31 Nov 21, 2015 03:45 PM

Please Leave a Comment Below!!!

guest
You may want to rate the tab now too:
select rating
Wanna post a correction for this tab? Suggest correction