Oops, an error
Loading. Please wait.

The Brown Lipstick Parade tab

28 views 6 this week
no commentswrite comment
1 2 3 4 5
2 more votes to show rating
add to favorites
×
Save as Personal and add changes to this tab that will be seen only by you. Learn more ›
×
You can save this tab as Personal to edit and correct it or add notes. All changes will be seen only by you. Learn more »
launch autoscroll
font size
0
reset
how to read this tab
guitar tuner
edit
Autoscroll
slow
fast
+/-
esc
set tempo
stop
About this tab version
The studio version, from the album "White People and the Damage Done". Was this info helpful? Yes No
[Intro]
e|-----------------------------------------------------------------------------------|
B|-----------------------------------------------------------------------------------|
G|------------------------------------------------------------------------------2b---|
D|---------------------------------------------------------------3-4-4--4-4--4-------|
A|---------------------------------------------------------5-6-7---------------------|
E|-7-----6-----5-----4-----7---6---5---4---7--6--5--4--7-6---------------------------|

e|---------------------------|
B|---------------------------|
G|---------------------------|
D|-4--4--7---4--4------------|
A|-2--2--5---2--2-2--7\4/7---|
E|-------------------5\2/5---|

e|---------------------------|
B|---------------------------|
G|---------------------------|
D|-4--4--7---4--4------------|
A|-2--2--5---2--2-2--7\4/7---|
E|-------------------5\2/5---|

e|---------------------------|
B|---------------------------|
G|---------------------------|
D|-4--4--7---4--4------------|
A|-2--2--5---2--2-2--7\4/7---|
E|-------------------5\2/5---|

e|---------------------------|
B|---------------------------|
G|---------------------------|
D|-4--4--7---4--4------------|
A|-2--2--5---2--2-2--7\4/7---|
E|-------------------5\2/5---|

[Verse]
e|---------|
B|---------|
G|---------|
D|-4\------|
A|-2\------|
E|---------|

e|---------------------------|
B|---------------------------|
G|---------------------------|
D|-4--4--7---4--4------------|
A|-2--2--5---2--2-2--7\4/7---|
E|-------------------5\2/5---|

e|---------------------------|
B|---------------------------|
G|---------------------------|
D|-4--4--7---4--4------------|
A|-2--2--5---2--2-2--7\4/7---|
E|-------------------5\2/5---|

e|---------|
B|---------|
G|---------|
D|-4\------|
A|-2\------|
E|---------|

e|---------------------------|
B|---------------------------|
G|---------------------------|
D|-4--4--7---4--4------------|
A|-2--2--5---2--2-2--7\4/7---|
E|-------------------5\2/5---|

e|---------------------------|
B|---------------------------|
G|---------------------------|
D|-4--4--7---4--4------------|
A|-2--2--5---2--2-2--7\4/7---|
E|-------------------5\2/5---|

e|--------------------------------|
B|--------------------------------|
G|--------------------------------|
D|---------4--7---4--4------------|
A|-3-2-----2--5---2--2-2--7\4/7---|
E|-1-0--------------------5\2/5---|

e|--------------------------------|
B|--------------------------------|
G|--------------------------------|
D|---------4--7---4--4------------|
A|-3-2-----2--5---2--2-2--7\4/7---|
E|-1-0--------------------5\2/5---|

[Chorus]
e|-----------------------------------------------------|
B|-----------------------------------------------------|
G|-----------------------------------------------------|
D|---------------------------------------------7--4----|
A|-4-4-4-4-4-4-2-3-4-4-7-7-2-2-2-2-3-4----2----5--2----|
E|-2-2-2-2-2-2-0-1-2-2-5-5-0-0-0-0-1-2----0------------|

e|---------------------------|
B|---------------------------|
G|---------------------------|
D|-4--4--7---4--4------------|
A|-2--2--5---2--2-2--7\4/7---|
E|-------------------5\2/5---|

e|-------------------|
B|-------------------|
G|-------------------|
D|-4-----------------|
A|-2-----0-2--4~~~---|
E|-------------------|

[Verse]
e|---------|
B|---------|
G|---------|
D|---------|
A|-2\------|
E|---------|

e|---------------------------|
B|---------------------------|
G|---------------------------|
D|-4--4--7---4--4------------|
A|-2--2--5---2--2-2--7\4/7---|
E|-------------------5\2/5---|

e|---------------------------|
B|---------------------------|
G|---------------------------|
D|-4--4--7---4--4------------|
A|-2--2--5---2--2-2--7\4/7---|
E|-------------------5\2/5---|

e|---------|
B|---------|
G|---------|
D|-4\------|
A|-2\------|
E|---------|

e|---------------------------|
B|---------------------------|
G|---------------------------|
D|-4--4--7---4--4------------|
A|-2--2--5---2--2-2--7\4/7---|
E|-------------------5\2/5---|

e|---------------------------|
B|---------------------------|
G|---------------------------|
D|-4--4--7---4--4------------|
A|-2--2--5---2--2-2--7\4/7---|
E|-------------------5\2/5---|

e|--------------------------------|
B|--------------------------------|
G|--------------------------------|
D|---------4--7---4--4------------|
A|-3-2-----2--5---2--2-2--7\4/7---|
E|-1-0--------------------5\2/5---|

e|--------------------------------|
B|--------------------------------|
G|--------------------------------|
D|---------4--7---4--4------------|
A|-3-2-----2--5---2--2-2--7\4/7---|
E|-1-0--------------------5\2/5---|

[Chorus]
e|-----------------------------------------------------|
B|-----------------------------------------------------|
G|-----------------------------------------------------|
D|---------------------------------------------7--4----|
A|-4-4-4-4-4-4-2-3-4-4-7-7-2-2-2-2-3-4----2----5--2----|
E|-2-2-2-2-2-2-0-1-2-2-5-5-0-0-0-0-1-2----0------------|

[Bridge]
e|-----------------------------------------------------------------------------------|
B|-----------------------------------------------------------------------------------|
G|------------------------------------------------------------------------------2b---|
D|---------------------------------------------------------------3-4-4--4-4--4-------|
A|---------------------------------------------------------5-6-7---------------------|
E|-7-----6-----5-----4-----7---6---5---4---7--6--5--4--7-6---------------------------|

(Bass solo - no guitar until 2:19)
G|-------------------------------------|
D|-------------------------------------|
A|-10-9--10-9--10-9--10-9--/12~~~\\\---|
E|-------------------------------------|

(and at 2:29)
e|---------------------------------------------------------------------------------------------------|
B|---------------------------------------------------------------------------------------------------|
G|---------------------------------------------------------------------------------------------------|
D|---------------------------------------------------------------------------------------------------|
A|-10-9--10-9--10-9--10-9--/12~~~-10-9--10-9--10-9--10-9--/12~~~-10-9--10-9--10-9--10-9--12-8-9~~~---|
E|---------------------------------------------------------------------------------------------------|

e|---------------------------------------------------------------------------------|
B|---------------------------------------------------------------------------------|
G|---------------------------------------------------------------------------------|
D|--4-4-4-4-4-4-4-4-2-2-2-2-2-2-2-2-4-4-4-4-4-4-4-4-2-2-2-2-2---14--11~--14--11~---|
A|--2-2-2-2-2-2-2-2-0-0-0-0-0-0-0-0-2-2-2-2-2-2-2-2-0-0-0-0-0----------------------|
E|---------------------------------------------------------------------------------|

e|--------------------------------------------------------------------|
B|--------------------------------------------------------------------|
G|--------------------------------------------------------------------|
D|--4-4-4-4-4-4-4-4-2-2-2-2-2-2-2-2-------------7--9--11--12--14\\\---|
A|--2-2-2-2-2-2-2-2-0-0-0-0-0-0-0-0---7--9--10------------------------|
E|--------------------------------------------------------------------|

e|-----------------------------------------------|
B|-----------------------------------------------|
G|-----------------------------------------------|
D|------------------------------------7-7--------|
A|--3-0--3-0--3-3--0--3-0---3-0--3-0------3~~~---|
E|-----------------------------------------------|

e|-------------------------------------------------|
B|-------------------------------------------------|
G|-------------------------------------------------|
D|--------------------------------------0-1-2~~~---|
A|--3-0--3-0--3-3--0--3-0---3-0--3-0--3------------|
E|-------------------------------------------------|

                                   (Make noise here)
e|-------------------------------------x-x-x-x---|
B|-------------------------------------x-x-x-x---|
G|-------------------------------------x-x-x-x---|
D|-----------------------------------------------|
A|--3-0--3-0--3-3--0--3-0---3-0--3-0-------------|
E|-----------------------------------------------|

e|----------------------------------------------------------|
B|----------------------------------------------------------|
G|----------------------------------------------------------|
D|---------------------------------------------7-7----------|
A|--3-0--3-0--3-3--0--3-0---3-0--3-0--3-0--0---------3~~~---|
E|----------------------------------------------------------|

e|--------------------|
B|--------------------|
G|--------------------|
D|-------7-7----------|
A|-3-0---------3~~~---|
E|--------------------|

[Verse]
e|---------|
B|---------|
G|---------|
D|---------|
A|-2\------|
E|---------|

e|---------|
B|---------|
G|---------|
D|---------|
A|-2\------|
E|---------|

e|-----------|
B|-----------|
G|-----------|
D|-----------|
A|-2-2\------|
E|-----------|

e|-----------|
B|-----------|
G|-17-16~\---|
D|-----------|
A|-----------|
E|-----------|

e|---------------------------|
B|---------------------------|
G|---------------------------|
D|-4--4--7---4--4------------|
A|-2--2--5---2--2-2--7\4/7---|
E|-------------------5\2/5---|

e|---------------------------|
B|---------------------------|
G|---------------------------|
D|-4--4--7---4--4------------|
A|-2--2--5---2--2-2--7\4/7---|
E|-------------------5\2/5---|

e|---------------------------|
B|---------------------------|
G|---------------------------|
D|-4--4--7---4--4------------|
A|-2--2--5---2--2-2--7\4/7---|
E|-------------------5\2/5---|

e|---------------------------|
B|---------------------------|
G|---------------------------|
D|-4--4--7---4--4------------|
A|-2--2--5---2--2-2--7\4/7---|
E|-------------------5\2/5---|

e|---------------------------|
B|---------------------------|
G|---------------------------|
D|-4--4--7---4--4------------|
A|-2--2--5---2--2-2--7\4/7---|
E|-------------------5\2/5---|

e|---------------------------|
B|---------------------------|
G|---------------------------|
D|-4--4--7---4--4------------|
A|-2--2--5---2--2-2--7\4/7---|
E|-------------------5\2/5---|

e|---------------------------|
B|---------------------------|
G|---------------------------|
D|-4--4--7---4--4------------|
A|-2--2--5---2--2-2--7\4/7---|
E|-------------------5\2/5---|

e|---------------------------|
B|---------------------------|
G|---------------------------|
D|-4--4--7---4--4------------|
A|-2--2--5---2--2-2--7\4/7---|
E|-------------------5\2/5---|

e|---------------------------|
B|---------------------------|
G|---------------------------|
D|-4--4--7---4--4------------|
A|-2--2--5---2--2-2--7\4/7---|
E|-------------------5\2/5---|

e|---------------------------|
B|---------------------------|
G|---------------------------|
D|-4--4--7---4--4------------|
A|-2--2--5---2--2-2--7\4/7---|
E|-------------------5\2/5---|

e|---------------------------|
B|---------------------------|
G|---------------------------|
D|-4--4--7---4--4------------|
A|-2--2--5---2--2-2--7\4/7---|
E|-------------------5\2/5---|

e|---------------------------|
B|---------------------------|
G|---------------------------|
D|-4--4--7---4--4------------|
A|-2--2--5---2--2-2--7\4/7---|
E|-------------------5\2/5---|

e|--------------------------------|
B|--------------------------------|
G|--------------------------------|
D|---------4--7---4--4------------|
A|-3-2-----2--5---2--2-2--7\4/7---|
E|-1-0--------------------5\2/5---|

e|--------------------------------|
B|--------------------------------|
G|--------------------------------|
D|---------4--7---4--4------------|
A|-3-2-----2--5---2--2-2--7\4/7---|
E|-1-0--------------------5\2/5---|

[Chorus]
e|-----------------------------------------------------|
B|-----------------------------------------------------|
G|-----------------------------------------------------|
D|---------------------------------------------7--4----|
A|-4-4-4-4-4-4-2-3-4-4-7-7-2-2-2-2-3-4----2----5--2----|
E|-2-2-2-2-2-2-0-1-2-2-5-5-0-0-0-0-1-2----0------------|

[Outro]
e|---------------------------|
B|---------------------------|
G|---------------------------|
D|-4--4--7---4--4------------|
A|-2--2--5---2--2-2--7\4/7---|
E|-------------------5\2/5---|

e|---------------------------|
B|---------------------------|
G|---------------------------|
D|-4--4--7---4--4------------|
A|-2--2--5---2--2-2--7\4/7---|
E|-------------------5\2/5---|

e|---------------------------|
B|---------------------------|
G|---------------------------|
D|-4--4--7---4--4------------|
A|-2--2--5---2--2-2--7\4/7---|
E|-------------------5\2/5---|

e|---------------------------|
B|---------------------------|
G|---------------------------|
D|-4--4--7---4--4------------|
A|-2--2--5---2--2-2--7\4/7---|
E|-------------------5\2/5---|

e|---------------------------|
B|---------------------------|
G|---------------------------|
D|-4--4--7---4--4------------|
A|-2--2--5---2--2-2--7\4/7---|
E|-------------------5\2/5---|

e|---------------------------|
B|---------------------------|
G|---------------------------|
D|-4--4--7---4--4------------|
A|-2--2--5---2--2-2--7\4/7---|
E|-------------------5\2/5---|

e|---------------------------|
B|---------------------------|
G|---------------------------|
D|-4--4--7---4--4------------|
A|-2--2--5---2--2-2--7\4/7---|
E|-------------------5\2/5---|

e|---------------|
B|---------------|
G|-4-----4--4\---|
D|-4-----4--4\---|
A|-2-----2--2\---|
E|---------------|


************************************

| x   Dead note
| b   Bend
| /   Slide up
| \   Slide down
| ~   Vibrato

************************************

            
            
Suggest correction
Creating personal tab
Creating personal tab
You can edit any tab online and save it as your Personal.

You can edit, replace or remove any tab part or add personal notes – all changes will be seen only by you.

Personal tabs can be accessed anytime from any device, even offline.
Learn more »
Give kudos to tab author, rate the tab!
1 2 3 4 5
comments
print report bad tab
guest
You may want to rate the tab now too:
select rating
Wanna post a correction for this tab? Suggest correction