Oops, an error
Loading. Please wait.

24 tab

version 2
version 2

Whole song

Interactive

by Jem
10,399 views 3 this week
15 commentsread comments
1 2 3 4 5
x 7
add to favorites
×
Save as Personal and add changes to this tab that will be seen only by you. Learn more ›
×
You can save this tab as Personal to edit and correct it or add notes. All changes will be seen only by you. Learn more »
launch autoscroll
font size
0
reset
how to read this tab
guitar tuner
backing track
0:00
0:00
edit
Autoscroll
slow
fast
+/-
esc
set tempo
stop
----------------------------------------------------------------------------
                             24 - Jem
----------------------------------------------------------------------------
Tabbed by: Nat
Email: Klown005@hotmail.com

I am 100% sure this tab is correct, but if you have any [intelligent] questions
or comments please don't hesitate to email me.

I also play in a band called Cryostat, please check us out at: http://www.myspace.com/cryostat .

Drop D, because I'm lazy.

Tuning:

Intro (Clean)

e|-------------------------------------------------------------------------|
B|------------------------------------------------------------5------------|
G|----------------------------------4-2-5555------4-2-------4--------------|
D|---2-4-2-5555----2-4-2----------2-------------2---------2----------------|
A|-2-------------2-------22-55--0-------------0---------2------------------|
D|-------------------------------------------------------------------------|

Verse (Distortion)

e|-------------------------------------------------------------------------|
B|-------------------------------------------------------------------------|
G|-55555555-22222222-55555555-77777777-------------------------------------|
D|-55555555-22222222-55555555-77777777-------------------------------------|
A|-33333333-00000000-33333333-55555555-------------------------------------|
D|-------------------------------------------------------------------------|

Chorus (Distortion)

e|-------------------------------------------------------------------------|
B|-------------------------------------------------------------------------|
G|-------------22-22-77-44-------------------------------------------------|
D|-22-22-22-22-22-22-77-44-------------------------------------------------|
A|-22-22-22-22-00-00-55-22-------------------------------------------------|
D|-22-22-22-22-------------------------------------------------------------|

Synth Thingy (I'm not 100% sure on this part, so please don't hurt me)

e|-------------------------------------------------------------------------|
B|-7-8-7-9-7-8-7-12-10-9-7-------------------------------------------------|
G|-------------------------------------------------------------------------|
D|-------------------------------------------------------------------------|
A|-------------------------------------------------------------------------|
D|-------------------------------------------------------------------------|


| /  slide up
| \  slide down
| h  hammer-on
| p  pull-off
| ~  vibrato
| +  harmonic
| x  Mute note
===============================================================================

THANKS
Suggest correction
Creating personal tab
Creating personal tab
You can edit any tab online and save it as your Personal.

You can edit, replace or remove any tab part or add personal notes – all changes will be seen only by you.

Personal tabs can be accessed anytime from any device, even offline.
Learn more »
comments
print report bad tab
15 comments total. Showing first comments.
0 reply
xpertsword 10 Mar 04, 2006 04:22 PM

Your synth is close, but I'm sure it goes something like this:

5-7-5-8-10-5-12-10-8-7

0 reply
xpertsword 10 Mar 04, 2006 04:24 PM

or like this for easier play...but it wont be exact:

5-7-5-8-5-7-5-12-10-8-7

0 reply
Cyburcide 10 Mar 23, 2006 07:34 AM

This tab is great, I prefer it much more than version 1.

guest
Wanna post a correction for this tab? Suggest correction