Oops, an error
Loading. Please wait.

Flying High Tab

by Jem
15,461 views 18 this week
no commentswrite comment
1 2 3 4 5
excellent!
x 4
add to favorites
launch autoscroll
font size
0
reset
how to read this tab
guitar tuner
Tab Pro tools
  • play this tab
  • loop segment
  • change instrument
  • show fretboard
  • metronome
Autoscroll
slow
fast
+/-
esc
set tempo
stop
Contributor
Bare with me, it's my first time.  I noticed no one put a tab for this song up, and I
if there were many Jem fans out there who are going through hell trying to find her tabs
I am, so here you go!

Intro:

|-------0----------------0----------------1---------------------1------------------|
|-1-------1-----1--1-------1-----1--3-------3------------3---------3-----3---------|
|---0-------0--------0-------0--------3--------3----3------3---------3-------------|
|-----2-------2--------2-------2--------3---------3-----------3--------3-----------|
|-3-----3----------3-----3----------1-----1--------------1------1--------1---------|
|----------------------------------------------------------------------------------|


|-------1----------------1---------------0-----------------------------------------|
|-1-------1----------------1-----1-1-------1-----1--1------------------------------|
|---2-------2---2--1---------1-------0-------0-------------------------------------|
|-----3-------3------3---------3-------2-------2-----------------------------------|
|----------------------3-----------3-----3----------3------------------------------|
|-1-----1-------1--1-----1---------------------------------------------------------|


Verse:(2x)
1a[You can't know, oh no, you can't know how much I think about you]
1b[Lookin' at you and you are lookin' at me and we both know what we want]
|-------0----------------0----------------1---------------------1------------------|
|-1-------1-----1--1-------1-----1--3-------3------------3---------3-----3---------|
|---0-------0--------0-------0--------3--------3----3------3---------3-------------|
|-----2-------2--------2-------2--------3---------3-----------3--------3-----------|
|-3-----3----------3-----3----------1-----1--------------1------1--------1---------|
|----------------------------------------------------------------------------------|

1a[No oh  It's makin' my head spin]
1b[Hmmm....(go to pre-chorus)]
|-------1----------------1---------------0-----------------------------------------|
|-1-------1----------------1-----1-1-------1-----1--1------------------------------|
|---2-------2---2--1---------1-------0-------0-------------------------------------|
|-----3-------3------3---------3-------2-------2-----------------------------------|
|----------------------3-----------3-----3----------3------------------------------|
|-1-----1-------1--1-----1---------------------------------------------------------|


Pre-Chorus:
1[...So close to givin' in]    [Feels so nice, oh yea, you feel so nice  Wish
                                I could...]
|-------1---------------0------------------------------0---------------0---------|
|---------1-----1-1-------1-----1--1-----1----1--1-------1-----1-1-------1-----1-|
|-1---------1-------0-------0--------0-------------2-------2-------2-------2-----|
|---3---------3-------2-------2--------2-------------2-------2-------2-------2---|
|-----3-----------3-----3----------3-----3----2--0-----0---------0-----0---------|
|-1-----1------------------------------------------------------------------------|

[...spend the night but I can't pay the price, oh no, no]
|-------0---------------0--------------------------------------------|
|-1-------1-----1-1-------1-----1--1---------------------------------|
|---2-------2-------2-------2---------(let ring)---------------------|
|-----2-------2-------3-------3--------------------------------------|
|-----------------1-----1----------1---------------------------------|
|-2-----2------------------------------------------------------------|


Chorus:(2x)
A[But I'm flying so high, high off the ground  When you're around]
B[And I can feel your high rocking me inside  It's too much to hide...]
|-------0---------------------------------0---------------0---------------1-----------------4------------|
|-1-------1-----1-1--------1---1--1-1-------1-----1-1-------1-----1-1-------1-----1---1-------1-----1----|
|---0-------0-------0-----------------2-------2-------2-------2-------2-------2---------1-------1--------|
|-----2-------2-------2-----------------2-------2-------2-------2-------3-------3---------3-------3------|
|-3-----3---------3-----3--3---2--0-0-----0-------------------------------------------3------------------|
|---------------------------------------------------2-----2---------1-----1-----------------1------------|

B(end of chorus second time)
|---------0-------------------------|
|-1---------1-----1-1---------------|
|---0---------0--------(let ring)---|
|-----2---------2-------------------|
|-3-------3---------3---------------|
|-----------------------------------|

(Verse 2 (2x))

(Pre-Chorus)

(Chorus)

Bridge:(2x)
A[Back to earth  Where did you take me to  I know there's no such thing]
B[As painless love  Well it'll catch us up and we can never win]
|------0---------------0---------------0-----------------------0----------|
|1-------1-----1-1-------1-----1-0-------0-----0-0-----3---------0-----0--|
|--2-------2-------2-------2-------0-------0-------0-------0-------0------|
|----2-------2-------2-------2-------2-------2-------2---------------2----|
|0-----0---------0-----0-------------------------------------2------------|
|--------------------------------0-----0---------0-----0-------0----------|

[But Ohhhhhhh...       I feel so alive...]
|-1-----1---------1-----1-----------------0---------------0----------------|
|---3-----3-----3---3-----3-----3---1-------1-----1-1-------1-----1--------|
|-----2-----2---------2-----2---------2-------2-------2-------2------------|
|-0-----------0---0-----------0---------2-------2-------2-------2----------|
|-----------------------------------0-----0---------0-----0----------------|
|--------------------------------------------------------------------------|

[And Ohhh oh ohh..just wanna hold, hold you so tight]
|-1-----1---------1-----1---------------3-----------------0---------------|
|---3-----3-----3---3-----3-----3---------3-----3-0---------0-----0-------|
|-----2-----2---------2-----2-----4---------4-------1---------1-----------|
|-0-----------0---------------0-----5---------5-------2---------2---------|
|-------------------------------------5-----------------2-----------------|
|---------------------------------3-----3---------0-------0---------------|

Chorus(2x)

End with a C chord


Verse 2 lyrics:
2a[I know, oh yes  I know that we can't be together...]
2a[...but, I just like to dream]
2b[It's so strange the way our paths have crossed  How we were brought together...]
2b[Hmmm, it's written in the stars it seems]


I think that's it.  Here's the link for the mp3 if you wanna hear it:
http://pure.beauty.free.fr/music/Jem%20-%20Flying%20High.mp3
Hope you like it!
comments
print report bad tab
I want to post or [tab]
guest
You may want to rate the tab now too:
select rating
Please do not post tabs as comments. Select "correction" instead!