Oops, an error
Loading. Please wait.

Its Amazing Chords

by Jem
47,723 views 45 this week
no commentswrite comment
1 2 3 4 5
excellent!
x 7
add to favorites
launch autoscroll
font size
0
reset
transpose
0
reset
simplify chords
display chords
guitar tuner
Tab Pro tools
  • play this tab
  • loop segment
  • change instrument
  • show fretboard
  • metronome
×
Best way to learn
"Its Amazing"
Autoscroll
slow
fast
+/-
esc
set tempo
stop
Contributor
-------------------------------------------------------------------------
IT’S AMAZING - Jem
-------------------------------------------------------------------------
Tabbed by: Kengus

Standard tuning
Capo on first fret!

INTRO
   Bm      Em       A      D       G       F#7
e|---------------3-------5-------2---------------------------|
B|-------3-----5-------5-------3-----------------------------|
G|-----4-----4-------6-------2-----------4-3-----4-3---------|
D|---4---------------------4---0-------5-------2-----5-4-2---|
A|-2---------------0-----------------5-------4---------------|
E|---------0-----------------------3-------2-------2---------|
   Bm     Em      A     D      G       F#7
e|--------------3------5------2------7-6-----7-6-----------------------|
B|-------3----5------5------3------8-------5-----8-7-5-----------------|
G|-----4----4------6------2------7-------6-------------7-6-4-3-0-------|
D|---4----2------7------0------5-------4-------------------------4-----|
A|-2---------------------------------------------------------------2-0-|
E|---------------------------------------------------------------------|

VERSE1
Bm    A    Bm               A
Do it now, you know who you are
    Bm              A
You feel it in your heart
           Bm             A
And you’re burning it and wishing
    Bm    A           Bm             A
But first wait, won't get it on your plate
       Bm            A           Bm         A
You’re gonna have to work for it harder and harder

PRE-CHORUS
   Em A         Bm                 A 
And I know cause I've been there before
Em              A            Bm          F#m
Knocking on the doors with rejection (rejection)
    Em     A         Bm               A
And you'll see cause if it's meant to be
Em             A          Bm          F#7
Nothing can compare to deserving your dreams

CHORUS
Bm       Em     A        D     G           F#7
   It's amazing,  it's amazing,   all that you can do
Bm       Em     A          D
   It's amazing,  makes my heart sing
G         F#7
  Now it's up to you

VERSE2
Bm       A         Bm              A
Patience now, frustration’s in the air
    Bm               A
And people who don't care
          Bm            A
Well it's gonna get you down
    Bm              A                Bm             A
And you'll (you’ll) fall (fall), yes you will hit a wall
    Bm                  A                   Bm           A
But get back up on your feet, and you'll be stronger and smarter

PRE-CHORUS
   Em A          Bm                 A 
And I know cause I've been there before
Em                A                 Bm        F#m
Knocking down the doors, won’t take no for an answer
    Em     A         Bm               A
And you'll see cause if it's meant to be
Em             A         Bm           F#7
Nothing can compare to deserving your dreams

CHORUS
Bm       Em     A        D     G           F#7
   It's amazing,  it's amazing,   all that you can do
Bm       Em     A          D
   It's amazing,  makes my heart sing
G         F#7
  Now it's up to you

INTERLUDE (repeat this x4, basically same as intro)
Bm      Em       A      D       G       F#7

CHORUS (repeat x2)
Bm       Em     A        D     G           F#7
   It's amazing,  it's amazing,   all that you can do
Bm       Em     A          D
   It's amazing,  makes my heart sing
G         F#7
  Now it's up to you

OUTRO (repeat x2)
Bm      Em       A      D       G       F#7
Hahh-ahh-ahh...............................

=========================================================================
Comment, rate, appreciate!
comments
print report bad tab
I want to post or [tab]
guest
You may want to rate the tab now too:
select rating
Please do not post tabs as comments. Select "correction" instead!