Oops, an error
Loading. Please wait.

A Swallow Song tab

7 views 1 this week
no commentswrite comment
1 2 3 4 5
3 more votes to show rating
add to favorites
×
Save as Personal and add changes to this tab that will be seen only by you. Learn more ›
×
You can save this tab as Personal to edit and correct it or add notes. All changes will be seen only by you. Learn more »
launch autoscroll
font size
0
reset
how to read this tab
guitar tuner
edit
Autoscroll
slow
fast
+/-
esc
set tempo
stop
Tabbed by: Joshua Garcia (joshuag523@aol.com)

Tabs for the song: A Swallow Song by Jenn Bojm & Khingfisher
Please rate and let me know if you have any corrections. Thank you.


Transcribed to be played by one guitar.


Tuning: Standard (E A D G B E)


[Intro]
E||---------5------5------5------3------1--|--0------0------0------0------0------0--|
B||----------------------------------------|----------------------------------------|
G||--5-------------------------------------|----------------------------------------|
D||--7------7------7------7------5------3--|--2------2------2------2------2------2--|
A||--7-------------------------------------|----------------------------------------|
E||--5-------------------------------------|----------------------------------------|


E||----------------------------------------|----------------------------------------|
B||---------5------5------5------3------1--|--0------0------0-------0--------0------|
G||--5-------------------------------------|----------------------------------------|
D||--7-------------------------------0-----|----------------------------------------|
A||--7-------------------------------------|----------------------------------------|
E||--5------5------5------5------3------1--|--0------0------0-------0--------0------|



[Chorus]
E||----------------------------------------------------------------------------------|
B||----------------------------------------------------------------------------------|
G||--5----------5----------5----------5----------2----------2----------1----------1--|
D||--7----------7----------5----------5----------3----------3----------2----------2--|
A||--7----------7----------5----------5----------3----------3----------2----------2--|
E||--5----------5----------3----------3----------1----------1----------0----------0--|


E||----------------------------------------------------------------------------------|
B||----------------------------------------------------------------------------------|
G||--5----------5----------5----------5----------1----------1----------1----------1--|
D||--7----------7----------7----------7----------2----------2----------2----------2--|
A||--7----------7----------7----------7----------2----------2----------2----------2--|
E||--5----------5----------5----------5----------0----------0----------0----------0--|


E||----------------------------------------------------------------------------------|
B||--6----------6--------------------------------------------------------------------|
G||--7----------7----------5----------5----------2----------2----------1----------1--|
D||--7----------7----------7----------7----------3----------3----------2----------2--|
A||--5----------5----------7----------7----------3----------3----------2----------2--|
E||------------------------5----------5----------1----------1----------0----------0--|


E||----------------------------------------------------------------------------------|
B||----------------------------------------------------------------------------------|
G||--2----------2----------2----------2----------1----------1----------1----------1--|
D||--3----------3----------3----------3----------2----------2----------2----------2--| [x2]
A||--3----------3----------3----------3----------2----------2----------2----------2--|
E||--1----------1----------1----------1----------0----------0----------0----------0--|



[Verse]
E||---------------------------------------------------------------------|
B||--5\---1-----------3---/5---3-------3/5---3---1-----------------1/5--|
G||---------------2----------------5-----------------4---2---1----------|
D||-----------2---------------------------------------------------------|
A||-------0-------------------------------------------------------------|
E||-----------------------/3-----------------1---------------0----------|


E||--1-----0-1-----0-----0---1---1/3\1-0---0h1-0---------|
B||------------------3----------------------------1---0--|
G||------------------------------------------------------|
D||------------------------------------------------------|
A||------------------------------------------------------|
E||--1-------1-------1-------1---------0-------0---------|



[Chorus]
E||----------------------------------------------------------------------------------|
B||----------------------------------------------------------------------------------|
G||--5----------5----------5----------5----------2----------2----------1----------1--|
D||--7----------7----------5----------5----------3----------3----------2----------2--|
A||--7----------7----------5----------5----------3----------3----------2----------2--|
E||--5----------5----------3----------3----------1----------1----------0----------0--|


E||----------------------------------------------------------------------------------|
B||----------------------------------------------------------------------------------|
G||--5----------5----------5----------5----------1----------1----------1----------1--|
D||--7----------7----------7----------7----------2----------2----------2----------2--|
A||--7----------7----------7----------7----------2----------2----------2----------2--|
E||--5----------5----------5----------5----------0----------0----------0----------0--|


E||----------------------------------------------------------------------------------|
B||--6----------6--------------------------------------------------------------------|
G||--7----------7----------5----------5----------2----------2----------1----------1--|
D||--7----------7----------7----------7----------3----------3----------2----------2--|
A||--5----------5----------7----------7----------3----------3----------2----------2--|
E||------------------------5----------5----------1----------1----------0----------0--|


E||----------------------------------------------------------------------------------|
B||----------------------------------------------------------------------------------|
G||--2----------2----------2----------2----------1----------1----------1----------1--|
D||--3----------3----------3----------3----------2----------2----------2----------2--|
A||--3----------3----------3----------3----------2----------2----------2----------2--|
E||--1----------1----------1----------1----------0----------0----------0----------0--|



[Verse]
E||-------------------------------------------------------------|
B||--5\---1-----------3---/5---3-------3/5---3---1--------------|
G||---------------2----------------5-----------------4---2---1--|
D||-----------2-------------------------------------------------|
A||-------0-----------------------------------------------------|
E||-----------------------/3-----------------1---------------0--|


E||-------------------------------------------------------------------------|
B||--5\---1----------3/5---5---3-------3/5---3-----1---------------1/5---5--|
G||---------------2----------------5-----------------4-----2-1--------------|
D||-----------2-------------------------------------------------------------|
A||-------0-----------------------------------------------------------------|
E||------------------------3-----------------1---------------0--------------|


E||-------------------------------------------------------|
B||--6-------6-------5-----------3/5---3---1--------------|
G||------7-------7-------7---5-----------------4---2---1--|
D||--0----------------------------------------------------|
A||-------------------------------------------------------|
E||------------------5-----------------1---------------0--|


E||------------------------------------------------------------------|
B||------------------------------------------------------------------|
G||------------------------------------------------------------------|
D||------------------------------------------------------------------|
A||--7---7---8-----7-8-----7-5---7---8---8/10\8-7-----7h8p7-------7--|
E||-------------------------------------------------------------7----|



[Chorus]
E||----------------------------------------------------------------------------------|
B||----------------------------------------------------------------------------------|
G||--5----------5----------5----------5----------2----------2----------1----------1--|
D||--7----------7----------5----------5----------3----------3----------2----------2--|
A||--7----------7----------5----------5----------3----------3----------2----------2--|
E||--5----------5----------3----------3----------1----------1----------0----------0--|


E||----------------------------------------------------------------------------------|
B||----------------------------------------------------------------------------------|
G||--5----------5----------5----------5----------1----------1----------1----------1--|
D||--7----------7----------7----------7----------2----------2----------2----------2--|
A||--7----------7----------7----------7----------2----------2----------2----------2--|
E||--5----------5----------5----------5----------0----------0----------0----------0--|


E||----------------------------------------------------------------------------------|
B||--6----------6--------------------------------------------------------------------|
G||--7----------7----------5----------5----------2----------2----------1----------1--|
D||--7----------7----------7----------7----------3----------3----------2----------2--|
A||--5----------5----------7----------7----------3----------3----------2----------2--|
E||------------------------5----------5----------1----------1----------0----------0--|


E||----------------------------------------------------------------------------------|
B||----------------------------------------------------------------------------------|
G||--2----------2----------2----------2----------1----------1----------1----------1--|
D||--3----------3----------3----------3----------2----------2----------2----------2--|
A||--3----------3----------3----------3----------2----------2----------2----------2--|
E||--1----------1----------1----------1----------0----------0----------0----------0--|



[Verse]
E||-------------------------------------------------------------|
B||--5\---1-----------3---/5---3-------1/5---3---1--------------|
G||---------------2----------------5-----------------4---2---1--|
D||-----------2-------------------------------------------------|
A||-------0-----------------------------------------------------|
E||-----------------------/3-----------------1---------------0--|


E||--1-----0-1-----0-----0---1---1/3\1-0---0h1-0----------------------|
B||------------------3-------------------------------3h5p3-----0h1p0--|
G||-------------------------------------------------------------------|
D||-------------------------------------------------------------------|
A||-------------------------------------------------------------------|
E||--1-------1-------1-------1---------0-------0----------------------|



[Outro]
E||---------5------5------5------3------1--|--0------0------0------0------0------0--|
B||----------------------------------------|----------------------------------------|
G||--5-------------------------------------|----------------------------------------|
D||--7------7------7------7------5------3--|--2------2------2------2------2------2--|
A||--7-------------------------------------|--0-------------------------------------|
E||--5-------------------------------------|----------------------------------------|


E||----------------------------------------|------------------------------------------------------|
B||---------5------5------5------3------1--|--0------0------0------0------0------0------0------0--|
G||--5-------------------------------------|------------------------------------------------------|
D||--7-------------------------------0-----|------------------------------------------------------|
A||--7-------------------------------------|------------------------------------------------------|
E||--5------5------5------5------3------1--|--0------0------0------0------0------0------0------0--|


E||---------5------5------5------3------1--|--0------0------0------0------0------0--|
B||----------------------------------------|----------------------------------------|
G||--5-------------------------------------|----------------------------------------|
D||--7------7------7------7------5------3--|--2------2------2------2------2------2--|
A||--7-------------------------------------|--0-------------------------------------|
E||--5-------------------------------------|----------------------------------------|


E||----------------------------------------|----------------------------------------|
B||---------5------5------5------3------1--|--0------0------0-------0--------0------|
G||--5-------------------------------------|----------------------------------------|
D||--7-------------------------------0-----|----------------------------------------|
A||--7-------------------------------------|----------------------------------------|
E||--5------5------5------5------3------1--|--0------0------0-------0--------0------|





*****************************
-Tablature Legend-

 h   hammer-on
 p   pull-off
 b   bend
 pb  pre-bend
 r   release bend
 ~   hold / vibrato
 .   palm mute
 /   slide up
 \   slide down
 *   pinch harmonic
 '   natural harmonic
 x   mute note
 T   tap

*****************************

            
            
Suggest correction
Creating personal tab
Creating personal tab
You can edit any tab online and save it as your Personal.

You can edit, replace or remove any tab part or add personal notes – all changes will be seen only by you.

Personal tabs can be accessed anytime from any device, even offline.
Learn more »
Give kudos to tab author, rate the tab!
1 2 3 4 5
comments
print report bad tab
guest
You may want to rate the tab now too:
select rating
Wanna post a correction for this tab? Suggest correction