Oops, an error
Loading. Please wait.

Revelation Song tab

version 2
version 2

Whole song

93 views 3 this week
no commentswrite comment
1 2 3 4 5
3 more votes to show rating
add to favorites
×
Save as Personal and add changes to this tab that will be seen only by you. Learn more ›
×
You can save this tab as Personal to edit and correct it or add notes. All changes will be seen only by you. Learn more »
launch autoscroll
font size
0
reset
how to read this tab
guitar tuner
edit
Autoscroll
slow
fast
+/-
esc
set tempo
stop
-------------------------------------------------------------------------------
                             Revelation song - Jennie Lee Riddle
-------------------------------------------------------------------------------
Tabbed by:
E-mail:                 CAPO 2
key of D
Tuning:

e|---------------------------------------------------------------------------|
B|--0-----0---3-----------------1-----1---1------------0------0---3----------|
G|-----2-----------2---0---2--------2-----------0---0------2----------2---2--|
D|--0--0--0---0----2---2---2--------0-3---3-3---0---0--0---0--0---0-------2--|
A|------------------------------3-----------3--------------------------------|
E|---------------------------------------------------------------------------|
   worthy is the lamb who was slain holy, holy, is He sing a new song to Him 
e|---------------------------------------------------------------------------|
B|----------1-----1----1-----------------------------------------------------|
G|--0---2-------2-------------0----------------------------------------------|
D|--2---2---2---0-3----3-3----0----------------------------------------------|
A|-----------------------3---------------------------------------------------|
E|---------------------------------------------------------------------------|
   who sits on heavens mercy seat
e|---------------0-0--------1---1----1---0------------1---0------------------|
B|------0--1--3------3--3------------------3--1---1----------1------1---3--1-|
G|--------------------------2---2----2---2-----------------------2-----------|
D|------2--2--2--2-2-2--3------------------3----------0---0--2------2---3----|
A|--------------------------------------------3---3--------------3---------3-|
E|---------------------------------------------------------------------------|
chorus: holy, holy holy is the lord God almighty who was and is and is to come
e|-----------------0-0--------1----1---0-----------------1---1--0------------|
B|--0----1---3--3--------3------------------3---1---1---------------3--1--1--|
G|---------------------------------------------------------------------------|
D|--2----2------3-------------3----3---3-----------------3---3--3------------|
A|-------------------3---3------------------3---3---3---------------3--3--3--|
E|---------------------------------------------------------------------------|
   with all creation i sing praise to the king of kings you are my everything
e|--------0------------------------------------------------------------------|
B|--1--3-------1-1---3-------------------------------------------------------|
G|---------------------------------------------------------------------------|
D|--------2------------------------------------------------------------------|
A|--3--3-------3-3---3-------------------------------------------------------|
E|---------------------------------------------------------------------------|
   and i will adore you 
e|---------------------------------------------------------------------------|
B|---------0----------0---3---------------1------1---1--------------------0-0|
G|----------------2----------2--0-------2----2-------------------0----0---0-0|
D|---------0------0---0---0--2--2-------2-2--0----------3----3---------------|
A|-----------------------------------------------3---3--3----3---2----2------|
E|---------------------------------------------------------------------------|
verse 3: filled with wonder awestruck wonder at the mention of your name Jesus
e|---------------0------1-----0-----1-0--------1---0--1----0---3--0-0--------|
B|--------0--3-----3---------------------3-1---------------------------------|
G|--2-----0--0---0-0---------------------------------------------------------|
D|--0------------------------------------------3---3--3----3---3-------------|
A|----------------------3-----3-----3-3--3-3----------------------3-3--------|
E|---------------------------------------------------------------------------|
   Your name is power breath and living water such a marvelous mystery yeah 

  repeat the chorus 

************************************

| /   slide up
| \   slide down
| h   hammer-on
| p   pull-off
| ~   vibrato
| +   harmonic
| x   Mute note
| b   Bend
| pb  Pre-bend
| br  Bend release
| pbr Pre-bend release
| brb Bend release bend

************************************

            
            
Suggest correction
Creating personal tab
Creating personal tab
You can edit any tab online and save it as your Personal.

You can edit, replace or remove any tab part or add personal notes – all changes will be seen only by you.

Personal tabs can be accessed anytime from any device, even offline.
Learn more »
Give kudos to tab author, rate the tab!
1 2 3 4 5
comments
print report bad tab
guest
You may want to rate the tab now too:
select rating
Wanna post a correction for this tab? Suggest correction