Oops, an error
Loading. Please wait.

Martyrs And Theives Tab

3,564 views 1 this week
no commentswrite comment
1 2 3 4 5
3 more votes to show rating
add to favorites
launch autoscroll
font size
0
reset
how to read this tab
guitar tuner
Autoscroll
slow
fast
+/-
esc
set tempo
stop
Help us to improve Ultimate-Guitar.com Take our survey!
×
Difficulty
Capo
intermediate
3rd fret
 Martyrs & Theives
 Collection Disc 2
 
   C        G        D       Em
|--0--|  |--3--|  |--2--|  |--0--|
|--1--|  |--3--|  |--3--|  |--0--| 
|--0--|  |--0--|  |--2--|  |--0--|
|--2--|  |--0--|  |--0--|  |--2--|
|--3--|  |--2--|  |-----|  |--2--|
|--0--|  |--3--|  |-----|  |--0--|


capo 3rd fret

|------3-------3--------0-----------3-------3-------3--3--0---0------0-|
|------3-------3-----------3--------3-------3-------3--3--3-----3----3-|
|------0-------0-----2--------------0-------0-------0--0--2-------2--2-|
|------0-------0--------------------0-------0-------0--0--0------------|
|-2h3--3--0h2--2---0-----------0h2--2--2h3--3--0h2--2--2---------------|    
|----------------------------------------------------------------------|

|------3-------3-------0----------3-------3-------3--3--0---0------0-|
|------3-------3----------3-------3-------3-------3--3--3-----3----3-|
|------0-------0------------------0-------0-------0--0--2-------2--2-|
|------0-------0---0--------------0-------0-------0--0--0------------|
|-2h3--3--0h2--2-------------0h2--2--2h3--3--0h2--2--2---------------|      
|--------------------------------------------------------------------|

|------3-------3-------0----------3-------3-------3--3--0---0------0-|
|------3-------3----------3-------3-------3-------3--3--3-----3----3-|
|------0-------0------------------0-------0-------0--0--2-------2--2-|
|------0-------0---0--------------0-------0-------0--0--0------------|
|-2h3--3--0h2--2-------------0h2--2--2h3--3--0h2--2--2---------------|      
|--------------------------------------------------------------------|

|------3-------3-------0----------3-------3-----3--3--3--0---0--0--0--0-|
|------3-------3----------3-------3-------3-----3--3--3--3---3--3--3--3-|
|------0-------0------------------0-------0-----0--0--0--2---2--2--2--2-|
|------0-------0---0--------------0-------0-----0--0--0--0---0--0--0--0-|  
|-2h3--3--0h2--2-------------0h2--2--2h3--3--2--2--2--2-----------------|  
|-----------------------------------------------------------------------|

  C G D G C G D 

|-0------0-------3-------3--3---0--0---3--3--|
|-3-3----3-------3-------3--3---3--3---3--3--|
|-----2--2-------0-------0--0---2--2---0--0--|  C D G
|----------------0-------0--0---0--0---0--0--|
|-----------2h3--3--0h2--2--2----------2--2--| 
|--------------------------------------3--3--|

  D C G D C G D C G Em D

  G D C |D C D|  G D C |D C D|  G D C |D C D|  G D C |D C D|  G D
           /\
          /  \
       PLAY FAST

|------3-------3-------0----------3-------3-------3--3--0---0------0-|
|------3-------3---------3--------3-------3-------3--3--3-----3----3-|
|------0-------0------------------0-------0-------0--0--2-------2--2-|
|------0-------0------------------0-------0-------0--0--0------------|
|-2h3--3--0h2--2---0---------0h2--2--2h3--3--0h2--2--2---------------|      
|--------------------------------------------------------------------|

|------3-------3-------0----------3-------3-------3--3--0---0------0-|
|------3-------3---------3--------3-------3-------3--3--3-----3----3-|
|------0-------0------------------0-------0-------0--0--2-------2--2-|
|------0-------0------------------0-------0-------0--0--0------------|
|-2h3--3--0h2--2---0---------0h2--2--2h3--3--0h2--2--2---------------|      
|--------------------------------------------------------------------|  

|------3-------3-------0----------3-------3-------3--3--0---0----0-|
|------3-------3---------3--------3-------3-------3--3--3-----3--3-|
|------0-------0------------------0-------0-------0--0--2--------2-|
|------0-------0---0--------------0-------0-------0--0--0----------|
|-2h3--3--0h2--2-------------0h2--2--2h3--3--0h2--2--2-------------|       
|------------------------------------------------------------------|

  C G D G C G D

|-0------0-------3-------3--3---0--0---3--3--|
|---3----3-------3-------3--3---3--3---3--3--|
|-----2--2-------0-------0--0---2--2---0--0--|  C D G
|----------------0-------0--0---0--0---0--0--|
|-----------2h3--3--0h2--2--2----------2--2--| 
|--------------------------------------3--3--|

  D C G D C G D C G Em D

  G D C |D C D|  G D C |D C D|  G D C |D C D|  G D C |D C D|  G D C        
           /\
          /  \
       PLAY FAST

                                             |---------|
                                             |---------|             
                                             |---------|               
 G for a while then do this when you hear it |---------| 
                                             |-3p0-2-0-|              
                                             |---------|              
  <---NOT TOO SURE ABOUT BUT U DO PLAY G
|--0-----0-----0----0--|
|--3-3---3-3---3-3--3--| 
|------2-----2------2--|
|----------------------|
|----------------------|
|----------------------|

|------3-------3--------0-----------3-------3-------3--3--0---0------0----|
|------3-------3----------3---------3-------3-------3--3--3-----3----3----|
|------0-------0-----2--------------0-------0-------0--0--2-------2--2----|
|------0-------0--------------------0-------0-------0--0--0---------------|
|-2h3--3--0h2--2---0-----------0h2--2--2h3--3--0h2--2--2------------------| 
|-------------------------------------------------------------------------|

|------3-------3-------0----------3-------3-----3--3--3--0-----0--0--0--0-|
|------3-------3----------3-------3-------3-----3--3--3--3-----3--3--3--3-|
|------0-------0------------------0-------0-----0--0--0--2-----2--2--2--2-|
|------0-------0------------------0-------0-----0--0--0--0-----0--0--0--0-| 
|-2h3--3--0h2--2---0---------0h2--2--2h3--3--2--2--2--2-------------------| 
|-------------------------------------------------------------------------|
  C G D G C G D

|-0------0-------3-------3--3---0--0---3--3--|
|---3----3-------3-------3--3---3--3---3--3--|
|-----2--2-------0-------0--0---2--2---0--0--|  C D G
|----------------0-------0--0---0--0---0--0--|
|-----------2h3--3--0h2--2--2----------2--2--| 
|--------------------------------------3--3--|

  D C G D C G D C G Em D

  G D C |D C D|  G D C |D C D|  G D C |D C D|  G D C |D C D|  G D        
           /\
          /  \       
       play fast
            
|------3-------3-------0----------3-------3-------3--3--0---0------0-|
|------3-------3----------3-------3-------3-------3--3--3-----3----3-|
|------0-------0------------------0-------0-------0--0--2-------2--2-|
|------0-------0---0--------------0-------0-------0--0--0------------|
|-2h3--3--0h2--2-------------0h2--2--2h3--3--0h2--2--2---------------|      
|--------------------------------------------------------------------|

|------3-------3--------0-----------3-------3-------3--3--0----------|
|------3-------3-----3--------------3-------3-------3--3--3----------|
|------0-------0-----------2--------0-------0-------0--0--2----------|
|------0-------0--------------------0-------0-------0--0--0----------|
|-2h3--3--0h2--2---0-----------0h2--2--2h3--3--0h2--2--2-------------|      
|--------------------------------------------------------------------|

I LOVE HOLLY DROBNY
Suggest correction
Give kudos to tab author, rate the tab!
1 2 3 4 5
comments
print report bad tab
guest
You may want to rate the tab now too:
select rating
Wanna post a correction for this tab? Suggest correction