Oops, an error
Loading. Please wait.

Im A Long Way From Home Chords

53,719 views 48 this week
6 commentsread comments
1 2 3 4 5
x 19
add to favorites
launch autoscroll
font size
0
reset
transpose
0
reset
simplify chords
display chords
guitar tuner
Autoscroll
slow
fast
+/-
esc
set tempo
stop
Help us to improve Ultimate-Guitar.com Take our survey!
×
Author
Difficulty
novice
-------------------------------------------------------------------------------
                        I'm a Long Way from Home - Shooter Jennings
-------------------------------------------------------------------------------
Tabbed by: Dave McGinn (http://davemcginn3.dmusic.com)
Email: 

Tuning: Standard
 
'I'm a Long Way from Home'
 
[Intro] 
e|---------------------------------------------------------------------------|
B|----------3-----------------------------------------------------------------|
G|--------2-------------------------------------------------------------------|
D|------0---------------------------------------------------------------------|
A|----0-----------------------------------------------------------------------|
E|--3-------------------------------------------------------------------------|

[Chorus]
       G   A
I'm a long way from home
G      A
 And so all alone
G                 A                 D
 Homesick, like I never thought I'd be
       G   A
I'm a long way from home
G         A
 And everything is wrong
G               A          D
 Someone please watch over me

[Verse]
D       D7                  G
I'm not accustomed to these feelings
A                               D
 The lonliness is burning in my soul
D             D7          G
Sometimes the mind is so misleading
A                                    D
I wish I'd stayed at home like I was told

[Chorus]
       G   A
I'm a long way from home
G      A
 And so all alone
G                 A                 D
 Homesick, like I never thought I'd be
       G   A
I'm a long way from home
G         A
 And everything is wrong
G               A          D
 Someone please watch over me  
Suggest correction
comments
print report bad tab
6 comments total. Showing first comments.
-2 reply
abyssofwoe 73 Jul 23, 2006 10:30 PM

98% Correct.

The intro is not right.

4 stars.

0 reply
Ultan000 10 Dec 20, 2007 08:19 AM

intro sounds right to me...great song

0 reply
Gossip 10 Jul 18, 2008 06:29 AM

sounded really good to me
thanks

guest
You may want to rate the tab now too:
select rating
Wanna post a correction for this tab? Suggest correction