Oops, an error
Loading. Please wait.

Boom Boom Bass

97 views 9 this week
no commentswrite comment
1 2 3 4 5
3 more votes to show rating
add to favorites
launch autoscroll
font size
0
reset
guitar tuner
×
Best way to learn
"Boom Boom"
Autoscroll
slow
fast
+/-
esc
set tempo
stop
Author
Difficulty
  follow
intermediate
About this tab version
Not so sure about this version being perfect,however the notes sound about right when playing along.Tone varies from bass to bass of course. Was this info helpful? Yes No
Not so sure about this version being perfect,however the notes sound about right when 
playing along.
Tone varies from bass to bass of course.

[Intro+Verse Riff]
G|-----------------------------|
D|-7-7-x-7-9-9-x-x-------------|
A|-----------------4-4-4-4-4-4-| x24
E|-----------------------------|

[Chorus]
G|------------------------------------9p7-9-|
D|-7-7-9-9--9-9-11p9-11-7-7-9-9--9-9--------|
A|------------------------------------------| x3
E|------------------------------------------|

G|----------------------|
D|-7-7-9-9--9-9-11p9-11-|
A|----------------------| x2
E|----------------------|

[Verse]
G|-----------------------------|
D|-7-7-x-7-9-9-x-x-------------|
A|-----------------4-4-4-4-4-4-| x22
E|-----------------------------|

[Chorus]
G|-----------------------------------9p7-9-|
D|-7-7-9-9--9-9-11p9-11-7-7-9-9--9-9-------|
A|-----------------------------------------| x5
E|-----------------------------------------|

G|----------------------|
D|-7-7-9-9--9-9-11p9-11-|
A|----------------------| x2
E|----------------------|

G|----------------------------|
D|-7-7-x-7-9-9-x-x------------|
A|----------------4-4-4-4-4-4-| x4
E|----------------------------|

[Bridge]
G|---------------|
D|---------------|
A|---------------| x12
E|-5-12\7-5-10\7-|

[Outro]
G|--------|
D|-11(x6)-|
A|--------|
E|--------|

G|-----------------------------|
D|-7-7-x-7-9-9-x-x-------------|
A|-----------------4-4-4-4-4-4-| x8
E|-----------------------------|


************************************

| x   Dead note
| p   Pull-off
| \   Slide down

************************************
Suggest correction
Give kudos to tab author, rate the tab!
1 2 3 4 5
comments
print report bad tab
guest
You may want to rate the tab now too:
select rating
Wanna post a correction for this tab? Suggest correction